Public Interest - Undone - Bass Tab

01234567891011121314151617181920212223
E
B
G
D
A
E
B
0 1 2 3 4 5 6 7 8 9 10 11 12 13 14 15 16 17 18 19 20 21 22 23
(/) Slide Up  (\) Slide Down  (h) Hammer On  (p) Pull Off  (b) Bend (r) Release (v) Vibrato

Verse

G|-----------------------------------------------------------------------------------------------------------------------6--------6-----------
D|--------------------------------------------0--0--2--2--2--2--2--2--2--2--2--2--2--2--2--2--2--2--4--4--4--4--4--4--4-----4--4-----4--6--6--
A|--0--0--0--0--0--0--0--0--0--0--0--0--0--0--------------------------------------------------------------------------------------------------
E|--------------------------------------------------------------------------------------------------------------------------------------------

Verse

G|-----------------------9--------9-----------------------------------------------------------------------------------
D|--7--7--7--7--7--7--7-----7--7-----7--6--2--2--2--2--2--2--2--------------------------------------------------------
A|--------------------------------------------------------------0--0--------------------------------------------------
E|--------------------------------------------------------------------2--2--2--2--2--2--2--2--2--2--2--2--2--2--4--4--

Chorus

G|--------------------------------------------------------------------------------------------------------------------------------------------------
D|--------------------------------------------------------------------------------------------------------------------------------------------------
A|--------------------------------------------------------------------------------------------------------------------------------------------------
E|--5--5--5--5--5--5--5--5--5--5--5--5--5--5--0--0--4--4--4--4--4--4--4--4--4--4--4--4--4--4--5--5--7--7--7--7--7--7--7--7--2--2--2--2--2--2--2--2--

Chorus

G|-----------------------------------------------------------
D|-----------------------------------------------------------
A|-----------------------------------------------------------
E|--5--5--5--5--5--5--5--5--5--5--5--5--5--5-----------4--4--

Outro

G|-----------------------------------------------------------------------------------------------------------------------------------------------------------
D|-----------------------------------------------------------------------------------------------------------------------------------------------------------
A|-----------------------------------------5--5--5--4--4--4--4--4--4--4--4--4--4--4--4--4--5--5--7--7--7--7--7--7--7--7--------------------------5--5--5--5--
E|--5--5--5--5--5--5--5--5--5--5--5--5--5--------------------------------------------------------------------------------7--7--7--7--7--7--7--7--------------

Outro

G|-----------------------------------------------------------------------------------------------------------------------------------------------------------
D|-----------------------------------------5--5--5--4--4--4--4--4--4--4--4--4--4--4--4--4--4--5--5--7--7--7--7--7--7--7--7--------------------------5--5--5--
A|--5--5--5--5--5--5--5--5--5--5--5--5--5-----------------------------------------------------------------------------------7--7--7--7--7--7--7--7-----------
E|-----------------------------------------------------------------------------------------------------------------------------------------------------------

							http://www.guitartabcreator.com
Chords

Instruments
{"strings":[[[".",".",".",".",".",".",".",".",".",".",".",".",".",".",".",".",".",".",".",".",".",".",".",".",".",".",".",".",".",".",".",".",".",".",".",".",".",".",".",6,".",".",6,".",".","."],[".",".",".",".",".",".",".",".",".",".",".",".",".",".",0,0,2,2,2,2,2,2,2,2,2,2,2,2,2,2,2,2,4,4,4,4,4,4,4,".",4,4,".",4,6,6],[0,0,0,0,0,0,0,0,0,0,0,0,0,0,".",".",".",".",".",".",".",".",".",".",".",".",".",".",".",".",".",".",".",".",".",".",".",".",".",".",".",".",".",".",".","."],[".",".",".",".",".",".",".",".",".",".",".",".",".",".",".",".",".",".",".",".",".",".",".",".",".",".",".",".",".",".",".",".",".",".",".",".",".",".",".",".",".",".",".",".",".","."]],[[".",".",".",".",".",".",".",9,".",".",9,".",".",".",".",".",".",".",".",".",".",".",".",".",".",".",".",".",".",".",".",".",".",".",".",".",".","."],[7,7,7,7,7,7,7,".",7,7,".",7,6,2,2,2,2,2,2,2,".",".",".",".",".",".",".",".",".",".",".",".",".",".",".",".",".","."],[".",".",".",".",".",".",".",".",".",".",".",".",".",".",".",".",".",".",".",".",0,0,".",".",".",".",".",".",".",".",".",".",".",".",".",".",".","."],[".",".",".",".",".",".",".",".",".",".",".",".",".",".",".",".",".",".",".",".",".",".",2,2,2,2,2,2,2,2,2,2,2,2,2,2,4,4]],[[".",".",".",".",".",".",".",".",".",".",".",".",".",".",".",".",".",".",".",".",".",".",".",".",".",".",".",".",".",".",".",".",".",".",".",".",".",".",".",".",".",".",".",".",".",".",".","."],[".",".",".",".",".",".",".",".",".",".",".",".",".",".",".",".",".",".",".",".",".",".",".",".",".",".",".",".",".",".",".",".",".",".",".",".",".",".",".",".",".",".",".",".",".",".",".","."],[".",".",".",".",".",".",".",".",".",".",".",".",".",".",".",".",".",".",".",".",".",".",".",".",".",".",".",".",".",".",".",".",".",".",".",".",".",".",".",".",".",".",".",".",".",".",".","."],[5,5,5,5,5,5,5,5,5,5,5,5,5,5,0,0,4,4,4,4,4,4,4,4,4,4,4,4,4,4,5,5,7,7,7,7,7,7,7,7,2,2,2,2,2,2,2,2]],[[".",".",".",".",".",".",".",".",".",".",".",".",".",".",".",".",".",".","."],[".",".",".",".",".",".",".",".",".",".",".",".",".",".",".",".",".",".","."],[".",".",".",".",".",".",".",".",".",".",".",".",".",".",".",".",".",".","."],[5,5,5,5,5,5,5,5,5,5,5,5,5,5,".",".",".",4,4]],[[".",".",".",".",".",".",".",".",".",".",".",".",".",".",".",".",".",".",".",".",".",".",".",".",".",".",".",".",".",".",".",".",".",".",".",".",".",".",".",".",".",".",".",".",".",".",".",".",".",".","."],[".",".",".",".",".",".",".",".",".",".",".",".",".",".",".",".",".",".",".",".",".",".",".",".",".",".",".",".",".",".",".",".",".",".",".",".",".",".",".",".",".",".",".",".",".",".",".",".",".",".","."],[".",".",".",".",".",".",".",".",".",".",".",".",".",5,5,5,4,4,4,4,4,4,4,4,4,4,4,4,4,5,5,7,7,7,7,7,7,7,7,".",".",".",".",".",".",".",".",5,5,5,5],[5,5,5,5,5,5,5,5,5,5,5,5,5,".",".",".",".",".",".",".",".",".",".",".",".",".",".",".",".",".",".",".",".",".",".",".",".",".",".",7,7,7,7,7,7,7,7,".",".",".","."]],[[".",".",".",".",".",".",".",".",".",".",".",".",".",".",".",".",".",".",".",".",".",".",".",".",".",".",".",".",".",".",".",".",".",".",".",".",".",".",".",".",".",".",".",".",".",".",".",".",".",".","."],[".",".",".",".",".",".",".",".",".",".",".",".",".",5,5,5,4,4,4,4,4,4,4,4,4,4,4,4,4,4,5,5,7,7,7,7,7,7,7,7,".",".",".",".",".",".",".",".",5,5,5],[5,5,5,5,5,5,5,5,5,5,5,5,5,".",".",".",".",".",".",".",".",".",".",".",".",".",".",".",".",".",".",".",".",".",".",".",".",".",".",".",7,7,7,7,7,7,7,7,".",".","."],[".",".",".",".",".",".",".",".",".",".",".",".",".",".",".",".",".",".",".",".",".",".",".",".",".",".",".",".",".",".",".",".",".",".",".",".",".",".",".",".",".",".",".",".",".",".",".",".",".",".","."]]],"numberofstrings":4,"notes":["G","D","A","E"],"capo":0,"stringnotes":["G2","D2","A1","E1"],"comments":["Verse","Verse","Chorus","Chorus","Outro","Outro"],"timing":[["W","W","W","W","W","W","W","W","W","W","W","W","W","W","W","W","W","W","W","W","W","W","W","W","W","W","W","W","W","W","W","W","W","W","W","W","W","W","W","W","W","W","W","W","W","W"],["W","W","W","W","W","W","W","W","W","W","W","W","W","W","W","W","W","W","W","W","W","W","W","W","W","W","W","W","W","W","W","W","W","W","W","W","W","W"],["W","W","W","W","W","W","W","W","W","W","W","W","W","W","W","W","W","W","W","W","W","W","W","W","W","W","W","W","W","W","W","W","W","W","W","W","W","W","W","W","W","W","W","W","W","W","W","W"],["W","W","W","W","W","W","W","W","W","W","W","W","W","W","W","W",null,"W","W"],["W","W","W","W","W","W","W","W","W","W","W","W","W","W","W","W","W","W","W","W","W","W","W","W","W","W","W","W","W","W","W","W","W","W","W","W","W","W","W","W","W","W","W","W","W","W","W","W","W","W","W"],["W","W","W","W","W","W","W","W","W","W","W","W","W","W","W","W","W","W","W","W","W","W","W","W","W","W","W","W","W","W","W","W","W","W","W","W","W","W","W","W","W","W","W","W","W","W","W","W","W","W","W"]],"timingvisible":false,"tabcounter":51,"stave":5,"totalstaves":6,"instrument":"4bass","selectedtuning":"4bass","version":"13"}

Member for

2 years 2 months
Submitted by PublicInterest on Sun, 2021-10-10 23:09