Public Interest - Transformer - Bass Tab

01234567891011121314151617181920212223
E
B
G
D
A
E
B
0 1 2 3 4 5 6 7 8 9 10 11 12 13 14 15 16 17 18 19 20 21 22 23
(/) Slide Up  (\) Slide Down  (h) Hammer On  (p) Pull Off  (b) Bend (r) Release (v) Vibrato

Verse 

G|--------------------------------------------------------------------------------------------------------------------------------------------------------
D|--9--7-----7--------------------------------------9--7-----7--------------------------------------9--7-----7-----------------------7--------7-----------
A|--------9-----8--8--8--8--8--8--8--8--8--8--8--8--------9-----8--8--8--8--8--8--8--8--8--8--8--8--------9-----5--5--5--5--5--5--5-----5--5-----5--5--5--
E|--------------------------------------------------------------------------------------------------------------------------------------------------------

Verse 

G|-----------------------------------------------7--------7-----7--9-----------------------7--------7--
D|-----------------------------------------------------------------------------------------------------
A|--2--2--2--2--2--2--2--2--7--7--7--7--7--7--7-----7--7-----7--------7--7--7--7--7--7--7-----7--7-----
E|-----------------------------------------------------------------------------------------------------

Chrous

G|------------------------------12------------------12--------------------------------------------------
D|------------------------------------------12----------12-----------------------11--------9-----9--11--
A|--10--10--10--10--10--10--10------10--10------10----------9--9--9--9--9--9--9------9--9-----9---------
E|------------------------------------------------------------------------------------------------------

Chorus

G|--------------------------------------------------------------------------------------------------------------11--------9-----9--11-----------------------11--------9--
D|------------------14------14------------------13------11--------------13------11------11\9--9--9--9--9--9--9------9--9-----9---------9--9--9--9--9--9--9------9--9-----
A|--12--12--12--12------12------12--11--11--11------11------11--11--11------11------11-----------------------------------------------------------------------------------
E|-----------------------------------------------------------------------------------------------------------------------------------------------------------------------

Outro

G|--------------------------------------------------------------------------------------------------
D|--------------------------------------------------------------------------------------------------
A|--8--8--8--8--8--8--8--8--8--8--8--8--2--2--5--5--7--7--7--7--7--7--7--7--7--7--7--7--5--5--3--3--
E|--------------------------------------------------------------------------------------------------

							http://www.guitartabcreator.com
Chords

Instruments
{"strings":[[[".",".",".",".",".",".",".",".",".",".",".",".",".",".",".",".",".",".",".",".",".",".",".",".",".",".",".",".",".",".",".",".",".",".",".",".",".",".",".",".",".",".",".",".",".",".",".",".",".","."],[9,7,".",7,".",".",".",".",".",".",".",".",".",".",".",".",9,7,".",7,".",".",".",".",".",".",".",".",".",".",".",".",9,7,".",7,".",".",".",".",".",".",".",7,".",".",7,".",".","."],[".",".",9,".",8,8,8,8,8,8,8,8,8,8,8,8,".",".",9,".",8,8,8,8,8,8,8,8,8,8,8,8,".",".",9,".",5,5,5,5,5,5,5,".",5,5,".",5,5,5],[".",".",".",".",".",".",".",".",".",".",".",".",".",".",".",".",".",".",".",".",".",".",".",".",".",".",".",".",".",".",".",".",".",".",".",".",".",".",".",".",".",".",".",".",".",".",".",".",".","."]],[[".",".",".",".",".",".",".",".",".",".",".",".",".",".",".",7,".",".",7,".",7,9,".",".",".",".",".",".",".",7,".",".",7],[".",".",".",".",".",".",".",".",".",".",".",".",".",".",".",".",".",".",".",".",".",".",".",".",".",".",".",".",".",".",".",".","."],[2,2,2,2,2,2,2,2,7,7,7,7,7,7,7,".",7,7,".",7,".",".",7,7,7,7,7,7,7,".",7,7,"."],[".",".",".",".",".",".",".",".",".",".",".",".",".",".",".",".",".",".",".",".",".",".",".",".",".",".",".",".",".",".",".",".","."]],[[".",".",".",".",".",".",".",12,".",".",".",".",12,".",".",".",".",".",".",".",".",".",".",".",".",".",".","."],[".",".",".",".",".",".",".",".",".",".",12,".",".",12,".",".",".",".",".",".",".",11,".",".",9,".",9,11],[10,10,10,10,10,10,10,".",10,10,".",10,".",".",9,9,9,9,9,9,9,".",9,9,".",9,".","."],[".",".",".",".",".",".",".",".",".",".",".",".",".",".",".",".",".",".",".",".",".",".",".",".",".",".",".","."]],[[".",".",".",".",".",".",".",".",".",".",".",".",".",".",".",".",".",".",".",".",".",".",".",".",".",".",".",".",".",".",11,".",".",9,".",9,11,".",".",".",".",".",".",".",11,".",".",9],[".",".",".",".",14,".",14,".",".",".",".",13,".",11,".",".",".",13,".",11,".",11,"\\",9,9,9,9,9,9,9,".",9,9,".",9,".",".",9,9,9,9,9,9,9,".",9,9,"."],[12,12,12,12,".",12,".",12,11,11,11,".",11,".",11,11,11,".",11,".",11,".",".",".",".",".",".",".",".",".",".",".",".",".",".",".",".",".",".",".",".",".",".",".",".",".",".","."],[".",".",".",".",".",".",".",".",".",".",".",".",".",".",".",".",".",".",".",".",".",".",".",".",".",".",".",".",".",".",".",".",".",".",".",".",".",".",".",".",".",".",".",".",".",".",".","."]],[[".",".",".",".",".",".",".",".",".",".",".",".",".",".",".",".",".",".",".",".",".",".",".",".",".",".",".",".",".",".",".","."],[".",".",".",".",".",".",".",".",".",".",".",".",".",".",".",".",".",".",".",".",".",".",".",".",".",".",".",".",".",".",".","."],[8,8,8,8,8,8,8,8,8,8,8,8,2,2,5,5,7,7,7,7,7,7,7,7,7,7,7,7,5,5,3,3],[".",".",".",".",".",".",".",".",".",".",".",".",".",".",".",".",".",".",".",".",".",".",".",".",".",".",".",".",".",".",".","."]]],"numberofstrings":4,"notes":["G","D","A","E"],"capo":0,"stringnotes":["G2","D2","A1","E1"],"comments":["Verse ","Verse ","Chrous","Chorus","Outro"],"timing":[["W","W","W","W","W","W","W","W","W","W","W","W","W","W","W","W","W","W","W","W","W","W","W","W","W","W","W","W","W","W","W","W","W","W","W","W","W","W","W","W","W","W","W","W","W","W","W","W","W","W"],["W","W","W","W","W","W","W","W","W","W","W","W","W","W","W","W","W","W","W","W","W","W","W","W","W","W","W","W","W","W","W","W","W"],["W","W","W","W","W","W","W","W","W","W","W","W","W","W","W","W","W","W","W","W","W","W","W","W","W","W","W","W"],["W","W","W","W","W","W","W","W","W","W","W","W","W","W","W","W","W","W","W","W","W","W",null,"W","W","W","W","W","W","W","W","W","W","W","W","W","W","W","W","W","W","W","W","W","W","W","W","W"],["W","W","W","W","W","W","W","W","W","W","W","W","W","W","W","W","W","W","W","W","W","W","W","W","W","W","W","W","W","W","W","W"]],"timingvisible":false,"tabcounter":32,"stave":4,"totalstaves":5,"instrument":"4bass","selectedtuning":"4bass","version":"13"}

Member for

2 years 2 months
Submitted by PublicInterest on Sun, 2021-10-10 22:30