Public Interest - Flies in the cemetery - Bass Tab

01234567891011121314151617181920212223
E
B
G
D
A
E
B
0 1 2 3 4 5 6 7 8 9 10 11 12 13 14 15 16 17 18 19 20 21 22 23
(/) Slide Up  (\) Slide Down  (h) Hammer On  (p) Pull Off  (b) Bend (r) Release (v) Vibrato

Verse

G|----------------------------------------------------------------------------------------------
D|--------------------------------------------------------------------------8--8--7--------7--8\
A|-----------------------------------------------------------------------------------8--8-------
E|--8--8--8--8--8--6--6--6--6--8--8--8--8--6--6--6--6--8--8--8--8--6--6--6----------------------

Verse Tag

G|----------------------------------------------------------
D|--12--12--12--12--12--------------------------------------
A|----------------------10--12------------------------------
E|------------------------------10--10--10--10--10--10--10--

Chorus

G|-----------------------------------------------------------------------------------------------
D|-----------------------------------------------------------------------------------------------
A|-----------------6--6--6--6--6--6--6--6--------------------------------------------------------
E|--8--8--8--6--6--------------------------6--6--6--8--8--8--6--5--5--5--5--5--5--5--5--5--5--5--

Chorus (3rd repetition)

G|-----------------------------------------------------------------------------------------------
D|-----------------------------------------------------------------------------------------------
A|-----------------6--6--6--6--6--6--6--6--8--8--8-----------------------------------------------
E|--8--8--8--6--6-----------------------------------8--8--8--6--5--5--5--5--5--5--5--5--5--5--5--

Bridge

G|-----------------------------------------------------------------|--------------------------------------------------------
D|-----------8--------------------------------------------------|--------------8--------------------------------------------
A|--8--8--8-----10--10--10--10--10--10--10--10--8--10--8-----|--------8--8--8-----10--10--10--10--10--10--10--10--8--10--8--
E|--------------------------------------------------------|-----------------------------------------------------------------

Bridge (3rd repetition)

G|-----------------------------------------------------------|--
D|--8--8--8--------------------------------------------------|--
A|-----------8--10--10--10--10--10--10--10--10--8--10--8-----|--
E|--------------------------------------------------------|--

							http://www.guitartabcreator.com
Chords

Instruments
{"strings":[[[".",".",".",".",".",".",".",".",".",".",".",".",".",".",".",".",".",".",".",".",".",".",".",".",".",".",".",".",".",".",".","."],[".",".",".",".",".",".",".",".",".",".",".",".",".",".",".",".",".",".",".",".",".",".",".",".",8,8,7,".",".",7,8,"\\"],[".",".",".",".",".",".",".",".",".",".",".",".",".",".",".",".",".",".",".",".",".",".",".",".",".",".",".",8,8,".",".","."],[8,8,8,8,8,6,6,6,6,8,8,8,8,6,6,6,6,8,8,8,8,6,6,6,".",".",".",".",".",".",".","."]],[[".",".",".",".",".",".",".",".",".",".",".",".",".","."],[12,12,12,12,12,".",".",".",".",".",".",".",".","."],[".",".",".",".",".",10,12,".",".",".",".",".",".","."],[".",".",".",".",".",".",".",10,10,10,10,10,10,10]],[[".",".",".",".",".",".",".",".",".",".",".",".",".",".",".",".",".",".",".",".",".",".",".",".",".",".",".",".",".",".","."],[".",".",".",".",".",".",".",".",".",".",".",".",".",".",".",".",".",".",".",".",".",".",".",".",".",".",".",".",".",".","."],[".",".",".",".",".",6,6,6,6,6,6,6,6,".",".",".",".",".",".",".",".",".",".",".",".",".",".",".",".",".","."],[8,8,8,6,6,".",".",".",".",".",".",".",".",6,6,6,8,8,8,6,5,5,5,5,5,5,5,5,5,5,5]],[[".",".",".",".",".",".",".",".",".",".",".",".",".",".",".",".",".",".",".",".",".",".",".",".",".",".",".",".",".",".","."],[".",".",".",".",".",".",".",".",".",".",".",".",".",".",".",".",".",".",".",".",".",".",".",".",".",".",".",".",".",".","."],[".",".",".",".",".",6,6,6,6,6,6,6,6,8,8,8,".",".",".",".",".",".",".",".",".",".",".",".",".",".","."],[8,8,8,6,6,".",".",".",".",".",".",".",".",".",".",".",8,8,8,6,5,5,5,5,5,5,5,5,5,5,5]],[[".",".",".",".",".",".",".",".",".",".",".",".",".",".",".",".",".",".","|",".",".",".",".",".",".",".",".",".",".",".",".",".",".","."],[".",".",".",8,".",".",".",".",".",".",".",".",".",".",".",".",".","|",".",".",".",".",8,".",".",".",".",".",".",".",".",".",".","."],[8,8,8,".",10,10,10,10,10,10,10,10,8,10,8,".","|",".",".",8,8,8,".",10,10,10,10,10,10,10,10,8,10,8],[".",".",".",".",".",".",".",".",".",".",".",".",".",".",".","|",".",".",".",".",".",".",".",".",".",".",".",".",".",".",".",".",".","."]],[[".",".",".",".",".",".",".",".",".",".",".",".",".",".",".",".",null,null,"|"],[8,8,8,".",".",".",".",".",".",".",".",".",".",".",".",".",null,"|"],[".",".",".",8,10,10,10,10,10,10,10,10,8,10,8,".","|"],[".",".",".",".",".",".",".",".",".",".",".",".",".",".",".","|"]]],"numberofstrings":4,"notes":["G","D","A","E"],"capo":0,"stringnotes":["G2","D2","A1","E1"],"comments":["Verse","Verse Tag","Chorus","Chorus (3rd repetition)","Bridge","Bridge (3rd repetition)"],"timing":[["W","W","W","W","W","W","W","W","W","W","W","W","W","W","W","W","W","W","W","W","W","W","W","W","W","W","W","W","W","W","W"],["W","W","W","W","W","W","W","W","W","W","W","W","W","W"],["W","W","W","W","W","W","W","W","W","W","W","W","W","W","W","W","W","W","W","W","W","W","W","W","W","W","W","W","W","W","W"],["W","W","W","W","W","W","W","W","W","W","W","W","W","W","W","W","W","W","W","W","W","W","W","W","W","W","W","W","W","W","W"],["W","W","W","W","W","W","W","W","W","W","W","W","W","W","W"]],"timingvisible":false,"tabcounter":19,"stave":5,"totalstaves":6,"instrument":"4bass","selectedtuning":"4bass","version":"13"}

Member for

2 years 2 months
Submitted by PublicInterest on Sun, 2021-10-10 23:33