Public Interest - Drive - Bass Tab

01234567891011121314151617181920212223
E
B
G
D
A
E
B
0 1 2 3 4 5 6 7 8 9 10 11 12 13 14 15 16 17 18 19 20 21 22 23
(/) Slide Up  (\) Slide Down  (h) Hammer On  (p) Pull Off  (b) Bend (r) Release (v) Vibrato

Intro

G|-----------------------------------
D|-----------------------------------
A|-----------------------------------
E|-2-4-4-4---2-4-4-4---4-4---2-4-4-4-

Verse

G|-------------------------------------------------
D|-----------------------------4-4---2-2-----------
A|-------------------------------------------------
E|-2-4-4-4---2-4-4-4---4-4-2-2-----------0-0---0-0-

Chorus

G|-------------------------------------------------------------------------
D|-------------------------------------------------------------------------
A|-------------------------------------------------------------------------
E|-2-2-4-4-4-4-4-4-4-4-4-4-4-4-4-4-6-6-7-7-7-7-7-7-7-7-7-7-7-7-7-7-9-9-7-7-

Chorus (second time)

G|-----------------------------------------------------------------
D|-----------------------------------------------------------------
A|-----------------------------------------------------------------
E|-2-4-4-4-4-4-4-4-4-4-4-4-2-2-2-2-0-0-0-0-0-0-0-0-0-0-0-0-0-0-0-0-

							http://www.guitartabcreator.com
Chords

Instruments
{"strings":[[[".",".",".",".","_",".",".",".",".","_",".",".","_",".",".",".","."],[".",".",".",".","_",".",".",".",".","_",".",".","_",".",".",".","."],[".",".",".",".","_",".",".",".",".","_",".",".","_",".",".",".","."],[2,4,4,4,"_",2,4,4,4,"_",4,4,"_",2,4,4,4]],[[".",".",".",".","_",".",".",".",".","_",".",".",".",".",".",".","_",".",".",".",".","_",".","."],[".",".",".",".","_",".",".",".",".","_",".",".",".",".",4,4,"_",2,2,".",".","_",".","."],[".",".",".",".","_",".",".",".",".","_",".",".",".",".",".",".","_",".",".",".",".","_",".","."],[2,4,4,4,"_",2,4,4,4,"_",4,4,2,2,".",".","_",".",".",0,0,"_",0,0]],[[".",".",".",".",".",".",".",".",".",".",".",".",".",".",".",".",".",".",".",".",".",".",".",".",".",".",".",".",".",".",".",".",".",".",".","."],[".",".",".",".",".",".",".",".",".",".",".",".",".",".",".",".",".",".",".",".",".",".",".",".",".",".",".",".",".",".",".",".",".",".",".","."],[".",".",".",".",".",".",".",".",".",".",".",".",".",".",".",".",".",".",".",".",".",".",".",".",".",".",".",".",".",".",".",".",".",".",".","."],[2,2,4,4,4,4,4,4,4,4,4,4,4,4,4,4,6,6,7,7,7,7,7,7,7,7,7,7,7,7,7,7,9,9,7,7]],[[".",".",".",".",".",".",".",".",".",".",".",".",".",".",".",".",".",".",".",".",".",".",".",".",".",".",".",".",".",".",".","."],[".",".",".",".",".",".",".",".",".",".",".",".",".",".",".",".",".",".",".",".",".",".",".",".",".",".",".",".",".",".",".","."],[".",".",".",".",".",".",".",".",".",".",".",".",".",".",".",".",".",".",".",".",".",".",".",".",".",".",".",".",".",".",".","."],[2,4,4,4,4,4,4,4,4,4,4,4,2,2,2,2,0,0,0,0,0,0,0,0,0,0,0,0,0,0,0,0]]],"numberofstrings":4,"notes":["G","D","A","E"],"capo":0,"stringnotes":["G2","D2","A1","E1"],"comments":["Intro","Verse","Chorus","Chorus (second time)"],"timing":[["W","W","W","W","W","W","W","W","W","W","W","W","W","W","W","W","W"],["W","W","W","W","W","W","W","W","W","W","W","W","W","W","W","W","W","W","W","W","W","W","W","W"],["W","W","W","W","W","W","W","W","W","W","W","W","W","W","W","W","W","W","W","W","W","W","W","W","W","W","W","W","W","W","W","W","W","W","W","W"],["W","W","W","W","W","W","W","W","W","W","W","W","W","W","W","W","W","W","W","W","W","W","W","W","W","W","W","W","W","W","W","W"]],"timingvisible":false,"tabcounter":32,"stave":3,"totalstaves":4,"instrument":"4bass","selectedtuning":"4bass","version":"13"}

Member for

2 years 2 months
Submitted by PublicInterest on Sun, 2021-10-10 23:21