Blue Zero - Fortress - Bass Tab

01234567891011121314151617181920212223
E
B
G
D
A
E
B
0 1 2 3 4 5 6 7 8 9 10 11 12 13 14 15 16 17 18 19 20 21 22 23
(/) Slide Up  (\) Slide Down  (h) Hammer On  (p) Pull Off  (b) Bend (r) Release (v) Vibrato

Verse

G|-----------------------------------------------------------------------------------------------
D|-----------------------------------------------------------------------------------------------
A|-----------------------------------------------------------------------------------------------
D|-----7--7-----7--7--7-----7--7--7-----7--7--7-----7--5--5-----5--5--5-----5--5--5-----5--5--5--

Pre-chorus

G|--------------------------------------------------------------------------
D|--------------------------------------------------4-----2--4-----2--4-----
A|-----------------------------------------------------4--------4-----------
D|--4--4-----4--4--4-----4--4--4-----4--4--4-----4-----------------------4--

Pre-Chrous

G|-----------------------------------------------------------------
D|--------------------------------------3-----1--3-----1--3--------
A|-----------------------------------------3--------3--------------
D|--3--3-----3--3--3-----3--3--3-----3-----------------------3-----

Chorus?

G|--------------------------------------|-----
D|-----------------------------------|--------
A|--------------------------------|-----------
D|--3--5-----3--5-----3--5--8--|-----------9--

Outro

G|--------------------------------------------------------------------------------------------------
D|--------------------------------------------------------------------------------------------------
A|--5--5--5--5--5--5--5--5--5--5--5--5--5--5--5--5--7--7--7--7--7--7--7--7--9--9--9--9--9--9--9--9--
D|--------------------------------------------------------------------------------------------------

							http://www.guitartabcreator.com
Chords

Instruments
{"strings":[[["_",".",".","_",".",".",".","_",".",".",".","_",".",".",".","_",".",".",".","_",".",".",".","_",".",".",".","_",".",".","."],["_",".",".","_",".",".",".","_",".",".",".","_",".",".",".","_",".",".",".","_",".",".",".","_",".",".",".","_",".",".","."],["_",".",".","_",".",".",".","_",".",".",".","_",".",".",".","_",".",".",".","_",".",".",".","_",".",".",".","_",".",".","."],["_",7,7,"_",7,7,7,"_",7,7,7,"_",7,7,7,"_",7,5,5,"_",5,5,5,"_",5,5,5,"_",5,5,5]],[[".",".","_",".",".",".","_",".",".",".","_",".",".",".","_",".",".",".",".",".",".",".",".","."],[".",".","_",".",".",".","_",".",".",".","_",".",".",".","_",".",4,".",2,4,".",2,4,"."],[".",".","_",".",".",".","_",".",".",".","_",".",".",".","_",".",".",4,".",".",4,".",".","."],[4,4,"_",4,4,4,"_",4,4,4,"_",4,4,4,"_",4,".",".",".",".",".",".",".",4]],[[".",".","_",".",".",".","_",".",".",".","_",".",".",".",".",".",".",".",".",".","_"],[".",".","_",".",".",".","_",".",".",".","_",".",3,".",1,3,".",1,3,".","_"],[".",".","_",".",".",".","_",".",".",".","_",".",".",3,".",".",3,".",".",".","_"],[3,3,"_",3,3,3,"_",3,3,3,"_",3,".",".",".",".",".",".",".",3,"_"]],[[".",".","_",".",".","_",".",".",".",".",".",".","|","."],[".",".","_",".",".","_",".",".",".",".",".","|",".","."],[".",".","_",".",".","_",".",".",".",".","|",".",".","."],[3,5,"_",3,5,"_",3,5,8,"|",".",".",".",9]],[[".",".",".",".",".",".",".",".",".",".",".",".",".",".",".",".",".",".",".",".",".",".",".",".",".",".",".",".",".",".",".","."],[".",".",".",".",".",".",".",".",".",".",".",".",".",".",".",".",".",".",".",".",".",".",".",".",".",".",".",".",".",".",".","."],[5,5,5,5,5,5,5,5,5,5,5,5,5,5,5,5,7,7,7,7,7,7,7,7,9,9,9,9,9,9,9,9],[".",".",".",".",".",".",".",".",".",".",".",".",".",".",".",".",".",".",".",".",".",".",".",".",".",".",".",".",".",".",".","."]]],"numberofstrings":4,"notes":["G","D","A","D"],"capo":0,"stringnotes":["G2","D2","A1","D1"],"comments":["Verse","Pre-chorus","Pre-Chrous","Chorus?","Outro"],"timing":[["W","W","W","W","W","W","W","W","W","W","W","W","W","W","W","W","W","W","W","W","W","W","W","W","W","W","W","W","W","W","W"],["W","W","W","W","W","W","W","W","W","W","W","W","W","W","W","W","W","W","W","W","W","W","W","W"],["W","W","W","W","W","W","W","W","W","W","W","W","W","W","W","W","W","W","W","W","W"],["W","W","W","W","W","W","W","W","W",null,null,null,null,"W"],["W","W","W","W","W","W","W","W","W","W","W","W","W","W","W","W","W","W","W","W","W","W","W","W","W","W","W","W","W","W","W","W"]],"timingvisible":false,"tabcounter":32,"stave":4,"totalstaves":5,"instrument":"4bass","selectedtuning":"4bass","version":"13"}

Member for

2 years 2 months
Submitted by PublicInterest on Mon, 2021-10-11 13:53