Blue Zero - Back of my day - Bass Tab

01234567891011121314151617181920212223
E
B
G
D
A
E
B
0 1 2 3 4 5 6 7 8 9 10 11 12 13 14 15 16 17 18 19 20 21 22 23
(/) Slide Up  (\) Slide Down  (h) Hammer On  (p) Pull Off  (b) Bend (r) Release (v) Vibrato

Verse x3

G|--------------------------------------------------------------------------------------------------
D|--------------------------------------------------------------------------------------------------
A|--5--5--5--5--5--5--5--5--3--3--3--3--3--3--3--3--1--1--1--1--1--1--3--3--------------------------
D|--------------------------------------------------------------------------5--5--5--5--5--5--5--5--

Verse 4th time tag

G|-----------------------------------------------------------------------------------------------
D|-----------------------------------------------------------------------------------------------
A|--1--1--1--1--1--1--3--3-----------------------1--1--1--1--1--3--3--3--------------------------
D|--------------------------5--5--5--5--5--5--5--------------------------3--3--3--6--6--6--6--6--

pre-chorus

G|--------------------------------------------------------------------------------------
D|--------------------------------------------------------------------------------------
A|--------------------------------------------------------------------------------------
D|--0--0--0--0--0--0--0--0--0--0--0--0--0--0--0--0--0--0--0--0--0--0--0--0--0--0--0--0--

Chorus

G|-----------------------------------------------------------|-----------------------------------------------------
D|--------------------------------------------------------|--------------------------------------------------------
A|-----------------------------------------------------|-----------------------------------------------------------
D|--5--5--5--5--5--5--5--5--2--2--2--2--2--2--0--2--|-----------5--5--5--5--5--7--7--7--2--2--2--2--2--2--0--2-----

Chorus

G|-----------------------------------------------------------|--------------------------------------------------
D|--------------------------------------------------------|-----------------------------------------------------
A|-----------------------------------------------------|--------------------------------------------------------
D|--5--5--5--5--5--5--5--5--2--2--2--2--2--2--0--2--|-----------5--5--5--5--5--7--7--7--0--0--0--3--3--3--3--3--

							http://www.guitartabcreator.com
Chords

Instruments
{"strings":[[[".",".",".",".",".",".",".",".",".",".",".",".",".",".",".",".",".",".",".",".",".",".",".",".",".",".",".",".",".",".",".","."],[".",".",".",".",".",".",".",".",".",".",".",".",".",".",".",".",".",".",".",".",".",".",".",".",".",".",".",".",".",".",".","."],[5,5,5,5,5,5,5,5,3,3,3,3,3,3,3,3,1,1,1,1,1,1,3,3,".",".",".",".",".",".",".","."],[".",".",".",".",".",".",".",".",".",".",".",".",".",".",".",".",".",".",".",".",".",".",".",".",5,5,5,5,5,5,5,5]],[[".",".",".",".",".",".",".",".",".",".",".",".",".",".",".",".",".",".",".",".",".",".",".",".",".",".",".",".",".",".","."],[".",".",".",".",".",".",".",".",".",".",".",".",".",".",".",".",".",".",".",".",".",".",".",".",".",".",".",".",".",".","."],[1,1,1,1,1,1,3,3,".",".",".",".",".",".",".",1,1,1,1,1,3,3,3,".",".",".",".",".",".",".","."],[".",".",".",".",".",".",".",".",5,5,5,5,5,5,5,".",".",".",".",".",".",".",".",3,3,3,6,6,6,6,6]],[[".",".",".",".",".",".",".",".",".",".",".",".",".",".",".",".",".",".",".",".",".",".",".",".",".",".",".","."],[".",".",".",".",".",".",".",".",".",".",".",".",".",".",".",".",".",".",".",".",".",".",".",".",".",".",".","."],[".",".",".",".",".",".",".",".",".",".",".",".",".",".",".",".",".",".",".",".",".",".",".",".",".",".",".","."],[0,0,0,0,0,0,0,0,0,0,0,0,0,0,0,0,0,0,0,0,0,0,0,0,0,0,0,0]],[[".",".",".",".",".",".",".",".",".",".",".",".",".",".",".",".",".",".",".","|",".",".",".",".",".",".",".",".",".",".",".",".",".",".",".",".","_"],[".",".",".",".",".",".",".",".",".",".",".",".",".",".",".",".",".",".","|",".",".",".",".",".",".",".",".",".",".",".",".",".",".",".",".",".","_"],[".",".",".",".",".",".",".",".",".",".",".",".",".",".",".",".",".","|",".",".",".",".",".",".",".",".",".",".",".",".",".",".",".",".",".",".","_"],[5,5,5,5,5,5,5,5,2,2,2,2,2,2,0,2,"|",".",".",".",5,5,5,5,5,7,7,7,2,2,2,2,2,2,0,2,"_"]],[[".",".",".",".",".",".",".",".",".",".",".",".",".",".",".",".",".",".",".","|",".",".",".",".",".",".",".",".",".",".",".",".",".",".",".","."],[".",".",".",".",".",".",".",".",".",".",".",".",".",".",".",".",".",".","|",".",".",".",".",".",".",".",".",".",".",".",".",".",".",".",".","."],[".",".",".",".",".",".",".",".",".",".",".",".",".",".",".",".",".","|",".",".",".",".",".",".",".",".",".",".",".",".",".",".",".",".",".","."],[5,5,5,5,5,5,5,5,2,2,2,2,2,2,0,2,"|",".",".",".",5,5,5,5,5,7,7,7,0,0,0,3,3,3,3,3]]],"numberofstrings":4,"notes":["G","D","A","D"],"capo":0,"stringnotes":["G2","D2","A1","D1"],"comments":["Verse x3","Verse 4th time tag","pre-chorus","Chorus","Chorus"],"timing":[["W","W","W","W","W","W","W","W","W","W","W","W","W","W","W","W","W","W","W","W","W","W","W","W","W","W","W","W","W","W","W","W"],["W","W","W","W","W","W","W","W","W","W","W","W","W","W","W","W","W","W","W","W","W","W","W","W","W","W","W","W","W","W","W"],["W","W","W","W","W","W","W","W","W","W","W","W","W","W","W","W","W","W","W","W","W","W","W","W","W","W","W","W"],["W","W","W","W","W","W","W","W","W","W","W","W","W","W","W","W",null,null,null,null,"W","W","W","W","W","W","W","W","W","W","W","W","W","W","W","W","W"],["W","W","W","W","W","W","W","W","W","W","W","W","W","W","W","W",null,null,null,null,"W","W","W","W","W","W","W","W","W","W","W","W","W","W","W","W"]],"timingvisible":false,"tabcounter":36,"stave":4,"totalstaves":5,"instrument":"4bass","selectedtuning":"4bass","version":"13"}

Member for

2 years 2 months
Submitted by PublicInterest on Mon, 2021-10-11 12:39