Sound will begin in 5 seconds

Undertale - Spider Dance

01234567891011121314151617181920212223
E
B
G
D
A
E
B
0 1 2 3 4 5 6 7 8 9 10 11 12 13 14 15 16 17 18 19 20 21 22 23
Song Science #1: How Pros Use 6 Chords to Write Hit Songs
(/) Slide Up  (\) Slide Down  (h) Hammer On  (p) Pull Off  (b) Bend (r) Release (v) Vibrato

Stave 1:

E|-----------------------------------------------|----------------------------------------------|--
B|--6--------------------------------------------|--------------------------------6-----4-------|--
G|--------5-----------------4--3-----3-----------|--5--3-----3--5--------------------------5\1--|--
D|--------------6-----3-----------------6-----3--|--------6-----------3--6--3-------------------|--
A|-----------------------------------------6-----|-----------------6-----------6----------------|--
E|-----------------------------------------------|----------------------------------------------|--

Stave 2:

E|-----------------------------------------------|-----------------------------------------------|--
B|-----------------------------------------------|--------------6-----------5--------------------|--
G|--------------------------------------3--------|--5-----3-----------5-----------6-----5--------|--
D|--3-----------5-----------6--------------------|-----------------------------------------------|--
A|-----------------------------------------------|-----------------------------------------------|--
E|-----------------------------------------------|-----------------------------------------------|--

Stave 3:

E|-----8--6--8-----8--6--8-----7--6--7-----8-----6--|-----8--6--8-----8--6--8-----8--6--8--6--9--8--9--|--
B|--6-----------6-----------------------------8-----|--6-----------8-----------9-----------------------|--
G|--------------------------6-----------8-----------|--------------------------------------------------|--
D|--------------------------------------------------|--------------------------------------------------|--
A|--------------------------------------------------|--------------------------------------------------|--
E|--------------------------------------------------|--------------------------------------------------|--

Stave 4:

E|------------------------------------------------------------|----------13------12----------|-----------
B|-----9--8--9-----11--9--11------13--11--13------14--13--14--|--13--11------13------14--13--|--9--8--9--
G|--6-----------8-------------10--------------12--------------|------------------------------|-----------
D|------------------------------------------------------------|------------------------------|-----------
A|------------------------------------------------------------|------------------------------|-----------
E|------------------------------------------------------------|------------------------------|-----------

Stave 5:

E|--8----------------------------------------------------------------------------------9--8--9--|--
B|--------9-------------------9-------------------9-------------------9-------------------------|--
G|--------------10------------------10--12--------------10--12--------------10--12--------------|--
D|---------------------10-----------------------------------------------------------------------|--
A|----------------------------------------------------------------------------------------------|--
E|----------------------------------------------------------------------------------------------|--

Stave 6:

E|--8-------------------------------------------------------------------------8-----9--8--9--|--
B|--------9-------------------9-----11--8--------9-----11--8--------9-----11-----------------|--
G|--------------10---------------------------------------------------------------------------|--
D|---------------------10--------------------------------------------------------------------|--
A|-------------------------------------------------------------------------------------------|--
E|-------------------------------------------------------------------------------------------|--

Stave 7:

E|--8----------------------------------------------------------------------------------9--8--9--|--
B|--------9-------------------9-------------------9-------------------9-------------------------|--
G|--------------10------------------10--12--------------10--12--------------10--12--------------|--
D|---------------------10-----------------------------------------------------------------------|--
A|----------------------------------------------------------------------------------------------|--
E|----------------------------------------------------------------------------------------------|--

Stave 8:

E|--8-----13-----------------------------------------------------------------------------------------|--
B|---------------11-----9-----11--9-----9--------9--11--12p11--9-------------------------------------|--
G|-------------------------------------------------------------------10------------------------------|--
D|--------------------------------------------------------------------------10-----11p10--14p10--15--|--
A|---------------------------------------------------------------------------------------------------|--
E|---------------------------------------------------------------------------------------------------|--

Stave 9:

E|--8-----------------------------------------------|--------------------------------------------------|--
B|--------9-----6--9-----6--9-----6--------6--------|--------9-----8--9--6--8--5--5--6--5--9--6--5--6--|--
G|--------------------5-----------------6-----3--6--|--6--6-----6--------------------------------------|--
D|--------------------------------------------------|--------------------------------------------------|--
A|--------------------------------------------------|--------------------------------------------------|--
E|--------------------------------------------------|--------------------------------------------------|--

Stave 10:

E|-----------------------6--8--6-----6--------------|--------11-----9-----8-----8--6--4--6--8--9--8--9--|--
B|--6-----6--8--9--6--9-----------9-----9--8--6--8--|--6--6------6-----6-----6--------------------------|--
G|-----5--------------------------------------------|---------------------------------------------------|--
D|--------------------------------------------------|---------------------------------------------------|--
A|--------------------------------------------------|---------------------------------------------------|--
E|--------------------------------------------------|---------------------------------------------------|--

Stave 11:

E|--8----------------------------------------------------------------------------------9--8--9--|--
B|--------9-------------------9-------------------9-------------------9-------------------------|--
G|--------------10------------------10--12--------------10--12--------------10--12--------------|--
D|---------------------10-----------------------------------------------------------------------|--
A|----------------------------------------------------------------------------------------------|--
E|----------------------------------------------------------------------------------------------|--

Stave 12:

E|--8-----13------------------------------------------------------------------------------------------|--
B|---------------11-----9-----11--9-----11--------9--11--12p11--9-------------------------------------|--
G|--------------------------------------------------------------------10------------------------------|--
D|---------------------------------------------------------------------------10-----11p10--14p10--15--|--
A|----------------------------------------------------------------------------------------------------|--
E|----------------------------------------------------------------------------------------------------|--

Stave 13:

E|------------------------------------------------------------------------------------|--
B|------------------------------------------------------------------------------------|--
G|--15--13-----15--13--------15--13-----15--13-----13h15p13---------------------------|--
D|-----------------------------------------------------------15-----15-----13--15-----|--
A|------------------------------------------------------------------------------------|--
E|------------------------------------------------------------------------------------|--

Stave 14:

E|-------------------------------------------------------------------------------------|--
B|-------------------------------------------------------------------------------------|--
G|--15--13-----15--13--------15--13-----15--13-----13-----15-----16--15-----13---------|--
D|------------------------------------------------------------------------------15-----|--
A|-------------------------------------------------------------------------------------|--
E|-------------------------------------------------------------------------------------|--

Stave 15:

E|---------------------------------------------------------------------|--
B|---------------------------------------------------------------------|--
G|---------------------------------------------------------------------|--
D|--8--6-----8--6--------8--6-----8--6-----6h8p6-----------------------|--
A|------------------------------------------------8-----8-----6--8-----|--
E|---------------------------------------------------------------------|--

Stave 16:

E|---------------------------------------------------------------------------|--
B|---------------------------------------------------------------------------|--
G|-------------------------------------------------------9-------------------|--
D|--8--6-----8--6--------8--6-----8--6-----10-----10--------10-----8--10-----|--
A|---------------------------------------------------------------------------|--
E|---------------------------------------------------------------------------|--

http://www.guitartabcreator.com
Guitar Tab Creator is intended to store guitar tab created through the tool. It currently does not support in-line text editing. Any text you place in here will be lost. If you need to comment on your tab, please use the "Tab Notes" section located below.