Sound will begin in 5 seconds

Pokemon HGSS Gym Leader theme (Johto)

Chords
01234567891011121314151617181920212223
E
B
G
D
A
E
B
0 1 2 3 4 5 6 7 8 9 10 11 12 13 14 15 16 17 18 19 20 21 22 23
Song Science #1: How Pros Use 6 Chords to Write Hit Songs
(/) Slide Up  (\) Slide Down  (h) Hammer On  (p) Pull Off  (b) Bend (r) Release (v) Vibrato

Stave 1:

E|---------------------------------------------|---------------------------------------------|-
B|---------------------------------------------|---------------------------------------------|-
G|-15-11-10-9-15-11-10-9-15-11-10-9-15-11-10-9-|-15-11-10-9-15-11-10-9-15-11-10-9-15-11-10-9-|-
D|---------------------------------------------|---------------------------------------------|-
A|---------------------------------------------|---------------------------------------------|-
E|---------------------------------------------|---------------------------------------------|-

Stave 2:

E|-----------|----------|----------|----------|----------|----------|----------|-------15-|-
B|-----------|----------|----------|----------|----------|-15-------|----------|-15-16-16-|-
G|-----------|----------|----------|----------|-14-15-12-|----14-15-|-14-15-12-|----------|-
D|-----------|-12-------|----------|-12-13-13-|----------|----------|----------|----------|-
A|--12-13-10-|----12-13-|-12-13-10-|-------13-|----------|----------|----------|----------|-
E|-----------|----------|----------|-------11-|----------|----------|----------|----------|-

Stave 3:

E|-------------------|-------------------|-------------|-16----------|-
B|-------------------|-------18-16-14-16-|-18------16--|---------18--|-
G|-15----19-17-15-17-|-18----------------|-------------|-------------|-
D|-------------------|-------------------|-------------|-------------|-
A|-------------------|-------------------|-------------|-------------|-
E|-------------------|-------------------|-------------|-------------|-

Stave 4:

E|-------------------|-------------------|-------------|-------------|-
B|-------------------|-------18-16-14----|-14----------|-------------|-
G|-15----19-17-15-17-|-18-------------17-|-------17----|-15----------|-
D|-------------------|-------------------|-------------|-------16----|-
A|-------------------|-------------------|-------------|-------------|-
E|-------------------|-------------------|-------------|-------------|-

Stave 5:

E|----------|----------|----------|----------|-
B|----------|----------|----------|-14-13-14-|-
G|----------|-17-15-17-|----------|-13-12-13-|-
D|-15-13-15-|-17-15-17-|-11-10-11-|-11-10-11-|-
A|-15-13-15-|-15-13-15-|-11-10-11-|----------|-
E|-13-11-13-|----------|-9--8--9--|----------|-

http://www.guitartabcreator.com
Guitar Tab Creator is intended to store guitar tab created through the tool. It currently does not support in-line text editing. Any text you place in here will be lost. If you need to comment on your tab, please use the "Tab Notes" section located below.