Sound will begin in 5 seconds

A Pleasure Trip In Eternity

01234567891011121314151617181920212223
E
B
G
D
A
E
B
0 1 2 3 4 5 6 7 8 9 10 11 12 13 14 15 16 17 18 19 20 21 22 23
Song Science #1: How Pros Use 6 Chords to Write Hit Songs
(/) Slide Up  (\) Slide Down  (h) Hammer On  (p) Pull Off  (b) Bend (r) Release (v) Vibrato

Stave 1:

E|-----------------------------------------------------------------------------------------------------------------------------------------------------------------------------------------------------------------------------------------------------
B|-----------------------------------------------------------------------------------------------------------------------------------------------------------------------------------------------------------------------------------------------------
G|-----------------------------------------------------------------------------------------------------------------------------------------------------------------------------------------------------------------------------------------------------
D|-----------------------------------------------------------------------------------------------------------------------------------------------------------------------------------------------------------------------------------------------------
A|-3----5v----5/8----5---------------------------------------------------------------------------------------------------------------------------------------------------------------------------------------------------------------------------------
D|---------------------------0/5-4-1-0-----------------------------------------------------------------------------------------------------------------------------------------------------------------------------------------------------------------

Stave 2:

E|---------------------------------
B|-8-8/10-10-8-7-------------------
G|---------------8-8/11-11-8-7v----
D|---------------------------------
A|---------------------------------
D|---------------------------------

Stave 3:

E|------------------------------------------------------------------
B|------------------------------------------------------------------
G|-----------------------------------7------------------------------
D|-----4-5-4------------5-7-5----------7-5-7-8------------4-5-4-----
A|-5-6-------6-5----5-6-------6-5--------------6-5----5-6-------6-5-
D|------------------------------------------------------------------

Stave 4:

E|--------------------------------------------------------------------------------------------------
B|--------------------------------------------------------------------------------------------------
G|-7---------------7-----------7-----------------7----------------------5/10-8-7v----7--------------
D|---7-5-7-8-7v------7-5-4v------7-5-7-8-7-5v------7-8-7-5----8-7-4v-------------------7-8-5----4/7-
A|--------------------------------------------------------------------------------------------------
D|--------------------------------------------------------------------------------------------------

Stave 5:

E|-----------------
B|-----------------
G|---8-7-----------
D|-4-----7---------
A|------------6-5v-
D|-----------------

Stave 6:

E|-----------------
B|---10-10---------
G|-7-------10----7-
D|------------10---
A|-----------------
D|-----------------

Stave 7:

E|--------------------
B|---10-8-------------
G|-7------9-5-5/7v----
D|--------------------
A|--------------------
D|--------------------

http://www.guitartabcreator.com
Guitar Tab Creator is intended to store guitar tab created through the tool. It currently does not support in-line text editing. Any text you place in here will be lost. If you need to comment on your tab, please use the "Tab Notes" section located below.