Sound will begin in 5 seconds

aether

Chords
01234567891011121314151617181920212223
E
B
G
D
A
E
B
0 1 2 3 4 5 6 7 8 9 10 11 12 13 14 15 16 17 18 19 20 21 22 23
Song Science #1: How Pros Use 6 Chords to Write Hit Songs
(/) Slide Up  (\) Slide Down  (h) Hammer On  (p) Pull Off  (b) Bend (r) Release (v) Vibrato

Stave 1:

E|-12b---12------------------------------------------------------10-8-------
B|----------12-10-12-12/16-13-12----------------------------9-12------9-10v-
G|------------------------------v-----8-9v-9/14v-10-9v-9-10-----------------
D|--------------------------------7-9---------------------------------------
A|--------------------------------------------------------------------------
E|--------------------------------------------------------------------------

Stave 2:

E|-8-10-12-10-8-10-7-12-11-8-12-11-8-7-8-10-8-5-4-7-0-
B|----------------------------------------------------
G|----------------------------------------------------
D|----------------------------------------------------
A|----------------------------------------------------
E|----------------------------------------------------

Stave 3:

E|----------12-10--------------------7-7-7-5-3-2-7-----
B|-13-12-12-------12-13-12-----------7---8-7-3-2-8-----
G|-------------------------12-9------9-9-9-7-5-4-9-----
D|------------------------------10-9-9-9-9-7-5-4-9-2/5-
A|-----------------------------------7-7-7-5-3-2-7-2-5-
E|-----------------------------------7-7-7-5-3-2-7-----

Stave 4:

E|----------------------------------------------------4-5--v-------------
B|--------------------------------------------0-1-4-5------------------0-
G|----------------------------------------1-2----------------------0-----
D|---------1---------2-1----------------------------------2----4-----4---
A|-3-2-------3-2---------3-2------------------------------2------2-------
E|-----5-4-------5-4---------5-4-----------------------------0-----------

Stave 5:

E|---2-------------2-------0-7--|------------------
B|-----0-----0-----2-------0-8v-|-5-5/8-8-7-5---5v-
G|-0-----0---------2-2-----0-9--|-------------7----
D|---------4-4-4p0-2-2-2-2-0-9--|------------------
A|---------------------2-3-2-7--|------------------
E|-------------------------0-7--|------------------

http://www.guitartabcreator.com
Guitar Tab Creator is intended to store guitar tab created through the tool. It currently does not support in-line text editing. Any text you place in here will be lost. If you need to comment on your tab, please use the "Tab Notes" section located below.