Sound will begin in 5 seconds

Stadium Arcadium Solo RCHP

01234567891011121314151617181920212223
E
B
G
D
A
E
B
0 1 2 3 4 5 6 7 8 9 10 11 12 13 14 15 16 17 18 19 20 21 22 23
Song Science #1: How Pros Use 6 Chords to Write Hit Songs
(/) Slide Up  (\) Slide Down  (h) Hammer On  (p) Pull Off  (b) Bend (r) Release (v) Vibrato

Stave 1:

E|---------------------------------------4-----------------------------
B|--5b7--2--5b7-------5---------------7---------------------5--7-------
G|---------------4b6-----4p2--4/6--6--------4p2--4p2-----6--------4b6--
D|----------------------------------------------------4----------------
A|---------------------------------------------------------------------
E|---------------------------------------------------------------------

Stave 2:

E|------------------------------------------------------------------------------------
B|------10b12--9--10--7--10b12--9--10--9h10--7----------------------------------------
G|--11------------------------------------------9b11--6--9/11--------9----------------
D|-------------------------------------------------------------9/11-----11p9\7--9/11--
A|------------------------------------------------------------------------------------
E|------------------------------------------------------------------------------------

Stave 3:

E|--------9--11--9-----------------------------9---------------------
B|-----9------------12--9-------------------9-----12--10--9b10-------
G|--9----------------------11p9--11v-----9----------------------11v--
D|-------------------------------------------------------------------
A|-------------------------------------------------------------------
E|-------------------------------------------------------------------

http://www.guitartabcreator.com
Guitar Tab Creator is intended to store guitar tab created through the tool. It currently does not support in-line text editing. Any text you place in here will be lost. If you need to comment on your tab, please use the "Tab Notes" section located below.