Sound will begin in 5 seconds

Shelf Lead

Chords
01234567891011121314151617181920212223
E
B
G
D
A
E
B
0 1 2 3 4 5 6 7 8 9 10 11 12 13 14 15 16 17 18 19 20 21 22 23
(/) Slide Up  (\) Slide Down  (h) Hammer On  (p) Pull Off  (b) Bend (r) Release (v) Vibrato

Hook

E|--------------------------
B|--------------------------
G|-----6--4-----------------
D|-----------6--4-----8--4--
A|--6--------------6--------
E|--------------------------

First Half of Verse

E|------------
B|------------
G|--11--9--8--
D|------------
A|--9---7--6--
E|------------

Second half of verse (rhythm guitar palm muting)

E|----------------------------------------------
B|----------------------------------------------
G|-----8-----8-----8-----8-----8-----8-----9---h
D|--6-----6-----6-----6-----9-----9-----9-----9-
A|----------------------------------------------
E|----------------------------------------------

Outro

E|-----------------
B|-----------------
G|-----------------
D|--6--4-----6--3--
A|--------6--4-----
E|-----------------

http://www.guitartabcreator.com
Guitar Tab Creator is intended to store guitar tab created through the tool. It currently does not support in-line text editing. Any text you place in here will be lost. If you need to comment on your tab, please use the "Tab Notes" section located below.