Sound will begin in 5 seconds

Condense Lead

Chords
01234567891011121314151617181920212223
E
B
G
D
A
E
B
0 1 2 3 4 5 6 7 8 9 10 11 12 13 14 15 16 17 18 19 20 21 22 23
(/) Slide Up  (\) Slide Down  (h) Hammer On  (p) Pull Off  (b) Bend (r) Release (v) Vibrato

Intro lick

E|--------------------
B|--------------------
G|--5-----------------
D|-----5--7--7--7--7--
A|--------------------
E|--------------------

Verse

E|-----------------5--5--5--5--
B|-----5-----7--6--5--5--5--5--
G|--------4--------------------
D|-----------------------------
A|--5--------------------------
E|-----------------------------

transition

E|--------------
B|--3--------6--
G|-----4--2-----
D|--------------
A|--------------
E|--------------

slow bridge

E|--10------12------
B|------13------12--
G|------------------
D|------------------
A|------------------
E|------------------

slam bridge

E|--14--12--
B|--14--12--
G|----------
D|----------
A|----------
E|----------

http://www.guitartabcreator.com
Guitar Tab Creator is intended to store guitar tab created through the tool. It currently does not support in-line text editing. Any text you place in here will be lost. If you need to comment on your tab, please use the "Tab Notes" section located below.