Godfather

Chords

01234567891011121314151617181920212223
E
B
G
D
A
E
B
0 1 2 3 4 5 6 7 8 9 10 11 12 13 14 15 16 17 18 19 20 21 22 23
(/) Slide Up  (\) Slide Down  (h) Hammer On  (p) Pull Off  (b) Bend (r) Release (v) Vibrato

Stave 1:

E|--0--|-----0--3--2--0--3--0--|--2--0--------|-----|-----0--3--2--0--3--0--|--2--0--|--------------------|-----------2--|--
B|--0--|--0--------0-----------|--1-----1--3--|--0--|--0--------0-----------|--1-----|-----------------1--|-----1--4--1--|--
G|--0--|-----------0-----------|--2-----------|-----|-----------0-----------|--2-----|--4--3--2-----2-----|--2--------2--|--
D|--2--|-----------------------|--------------|-----|-----------------------|--------|-----------2--------|--------------|--
A|--2--|-----------------------|--0-----------|-----|-----------------------|--0-----|--------0-----------|-----------0--|--
E|--0--|-----------0-----------|--------------|--0--|-----------0-----------|--------|--------------------|--------------|--

Stave 2:

E|-----------0--|-----------------------|-----------|--------|--|--0--0--------------2-----|--2--0--------|--------------|--
B|-----1--4--0--|--------3--1--0--3--1--|--1--0--0--|--------|--|--------4--3-----3-----3--|--------1--0--|--0--3--0-----|--
G|--2--------0--|-----0-----2-----------|--2--------|--------|--|--------------5-----------|--------------|-----------2--|--
D|--------------|--2--------1-----------|--1--------|--1--2--|--|-----------0--------------|--------------|-----------3--|--
A|--------------|-----------2-----------|-----------|--------|--|--------------------------|--------------|--------------|--
E|-----------0--|-----------------------|-----------|-----0--|--|--------------------------|-----------3--|-----------1--|--

Stave 3:

E|--------------------------|--|--1--|--|-----------------------|--------------0--|--|--
B|-----1-----0-----------0--|--|--1--|--|--------3--1--0--3--1--|--1--0--0--4-----|--|--
G|--2-----3--------0--2-----|--|--1--|--|-----0-----2-----------|--2--------------|--|--
D|--------------1-----------|--|--1--|--|--2--------1-----------|--1--------------|--|--
A|-----------2--------------|--|--1--|--|-----------2-----------|-----------------|--|--
E|--------------------------|--|--1--|--|-----------------------|--------------0--|--|--

							http://www.guitartabcreator.com
Instruments
{"strings":[[[0,"|",".",0,3,2,0,3,0,"|",2,0,".",".","|",".","|",".",0,3,2,0,3,0,"|",2,0,"|",".",".",".",".",".",".","|",".",".",".",2,"|"],[0,"|",0,".",".",0,".",".",".","|",1,".",1,3,"|",0,"|",0,".",".",0,".",".",".","|",1,".","|",".",".",".",".",".",1,"|",".",1,4,1,"|"],[0,"|",".",".",".",0,".",".",".","|",2,".",".",".","|",".","|",".",".",".",0,".",".",".","|",2,".","|",4,3,2,".",2,".","|",2,".",".",2,"|"],[2,"|",".",".",".",".",".",".",".","|",".",".",".",".","|",".","|",".",".",".",".",".",".",".","|",".",".","|",".",".",".",2,".",".","|",".",".",".",".","|"],[2,"|",".",".",".",".",".",".",".","|",0,".",".",".","|",".","|",".",".",".",".",".",".",".","|",0,".","|",".",".",0,".",".",".","|",".",".",".",0,"|"],[0,"|",".",".",".",0,".",".",".","|",".",".",".",".","|",0,"|",".",".",".",0,".",".",".","|",".",".","|",".",".",".",".",".",".","|",".",".",".",".","|"]],[[".",".",".",0,"|",".",".",".",".",".",".",".","|",".",".",".","|",".",".","|","|",0,0,".",".",".",".",2,".","|",2,0,".",".","|",".",".",".",".","|"],[".",1,4,0,"|",".",".",3,1,0,3,1,"|",1,0,0,"|",".",".","|","|",".",".",4,3,".",3,".",3,"|",".",".",1,0,"|",0,3,0,".","|"],[2,".",".",0,"|",".",0,".",2,".",".",".","|",2,".",".","|",".",".","|","|",".",".",".",".",5,".",".",".","|",".",".",".",".","|",".",".",".",2,"|"],[".",".",".",".","|",2,".",".",1,".",".",".","|",1,".",".","|",1,2,"|","|",".",".",".",0,".",".",".",".","|",".",".",".",".","|",".",".",".",3,"|"],[".",".",".",".","|",".",".",".",2,".",".",".","|",".",".",".","|",".",".","|","|",".",".",".",".",".",".",".",".","|",".",".",".",".","|",".",".",".",".","|"],[".",".",".",0,"|",".",".",".",".",".",".",".","|",".",".",".","|",".",0,"|","|",".",".",".",".",".",".",".",".","|",".",".",".",3,"|",".",".",".",1,"|"]],[[".",".",".",".",".",".",".",".","|","|",1,"|","|",".",".",".",".",".",".",".","|",".",".",".",".",0,"|","|"],[".",1,".",0,".",".",".",0,"|","|",1,"|","|",".",".",3,1,0,3,1,"|",1,0,0,4,".","|","|"],[2,".",3,".",".",0,2,".","|","|",1,"|","|",".",0,".",2,".",".",".","|",2,".",".",".",".","|","|"],[".",".",".",".",1,".",".",".","|","|",1,"|","|",2,".",".",1,".",".",".","|",1,".",".",".",".","|","|"],[".",".",".",2,".",".",".",".","|","|",1,"|","|",".",".",".",2,".",".",".","|",".",".",".",".",".","|","|"],[".",".",".",".",".",".",".",".","|","|",1,"|","|",".",".",".",".",".",".",".","|",".",".",".",".",0,"|","|"]]],"numberofstrings":6,"notes":["E","B","G","D","A","E","B"],"capo":0,"stringnotes":["E4","B3","G3","D3","A2","E2"],"comments":["Stave 1:","Stave 2:","Stave 3:"],"timing":[[null,null,null,null,null,null,null,null,null,"W","W","W","W",null,"W",null,"W","W","W","W","W","W","W",null,"W","W","W","W","W","W","W","W","W","W","W","W","W","W"],["W","W","W","W","W","W","W","W","W","W","W","W",null,"W","W","W",null,"W","W",null,null,"W","W","W","W","W","W","W","W",null,"W","W","W","W",null,"W","W","W","W"],["W","W","W","W","W","W","W","W",null,null,"W",null,null,"W","W","W","W","W","W","W",null,"W","W","W","W","W"]],"timingvisible":false,"tabcounter":40,"stave":0,"totalstaves":3,"instrument":"6guitar","selectedtuning":"6_standard","version":"13"}

Member for

1 week 4 days
About Me
lad
Submitted by ProneAlone02 on Sat, 2020-08-01 15:37