Sound will begin in 5 seconds

Nothing Else Matter ROMA Version 2

Chords
01234567891011121314151617181920212223
E
B
G
D
A
E
B
0 1 2 3 4 5 6 7 8 9 10 11 12 13 14 15 16 17 18 19 20 21 22 23
Song Science #1: How Pros Use 6 Chords to Write Hit Songs
(/) Slide Up  (\) Slide Down  (h) Hammer On  (p) Pull Off  (b) Bend (r) Release (v) Vibrato

Stave 1:

E|--12----------14----------15----------17----------
B|------12----------12----------12----------12------
G|----------12----------12----------12----------12--
D|--------------------------------------------------
A|--------------------------------------------------
E|--------------------------------------------------

Stave 2:

E|--------------5h8-----------------------8-----
B|-----------5-------5-----------------5--------
G|--------5-------------5-----------5-----------
D|-----5-------------------------5--------------
A|----------------------------0-----------------
E|--0-------------------------------------------

Stave 3:

E|--------------------------3-----------------------2--------------------0--------
B|--5--5--5-----------5--------5--------------3--------3--------------0-----0-----
G|--5--5--5--------5-----5--------5--------2-----2--------2--------0-----------0--
D|--------------------------------------------------------------------------------
A|--0--2--3-----3-----------------------0-----------------------------------------
E|--------------------------------------------------------------0-----------------

Stave 4:

E|-----------0--------------------0-----------------0-----7--7--------7p0--------------7--8--7h8p7\5--
B|--------0-----0--------------0-----0-----------0--------------0----------0-----------0--0-----------
G|-----0-----------0--------0-----------0-----0--------0-----------0----------0-----0-----------------
D|----------------------------------------------------------------------------------------------------
A|----------------------------------------------------------------------------------------------------
E|--0--------------------0-----------------0-----------------0-------------------0--------------------

Stave 5:

E|--5--7--5-------------------0----------------------------0--
B|-----------------------0h1-----0--------------------0h1-----
G|--------------------2-------------2--------------2----------
D|-----------------2----------------------------2-------------
A|--------------0----------------------------0----------------
E|-----------0----------------------------0-------------------

Stave 6:

E|-----------------0-----------------2---------------------12-----------------0--------
B|--------------0-----0-----------3-----3--------------12------0-----------0-----0-----
G|-----------0-----------0-----2-----------2-------12-------------0-----0-----------0--
D|-------------------------------------------------------------------------------------
A|--2--2-------------------------------------------------------------------------------
E|--2--3--0-----------------0-----------------1p0--------------------0-----------------

Stave 7:

E|--7--7--7--7-------------------------------------------7--------------------------------------
B|--8--8--7--8--------------7--------------5-------------8--------------7-----------------5-----
G|--9--9--7--9--------------------------5-----5----------9-----------7-----7-----------5-----5--
D|--9--9--7--9--------7--7-----------5-------------------9--------7-----------------5-----------
A|--7--7-----------5--------------3-----------------3/7--7-----5-----------------3--------------
E|--0-------------------------------------------------------------------------------------------

Stave 8:

E|-------7-----------------------------------------------3--------------------------7--------
B|-------8-----------7--------------5-----------------3--------------------------7-----7-----
G|-------9--------7-----7--------5-----5-----------4--------------------------8-----------8--
D|-------9-----7--------------5-----------------5--------------5-----7-----9-----------------
A|--3/7--7--5--------------3--------------------5--------------5-----7-----9-----------------
E|-------------------------------------------3-----------------3-----5-----7-----------------

http://www.guitartabcreator.com
Guitar Tab Creator is intended to store guitar tab created through the tool. It currently does not support in-line text editing. Any text you place in here will be lost. If you need to comment on your tab, please use the "Tab Notes" section located below.