interstellar sound

01234567891011121314151617181920212223
E
B
G
D
A
E
B
0 1 2 3 4 5 6 7 8 9 10 11 12 13 14 15 16 17 18 19 20 21 22 23
(/) Slide Up  (\) Slide Down  (h) Hammer On  (p) Pull Off  (b) Bend (r) Release (v) Vibrato

Stave 1:

E|-----------------4--------------------4--------------------4-----
B|--------------2-----2--------------2-----2--------------2-----2--
G|-----------------------------------------------------------------
D|-----------------------------------------------------------------
A|--0--0--0--0-----------2--2--2--2-----------4--4--4--4-----------
E|-----------------------------------------------------------------

Stave 2:

E|-----------------4--------------------4--------------------4-----
B|--------------2-----2--------------2-----2--------------2-----2--
G|-----------------------------------------------------------------
D|-----------------------------------------------------------------
A|--0--0--0--0-----------2--2--2--2-----------4--4--4--4-----------
E|-----------------------------------------------------------------

							http://www.guitartabcreator.com
Chords

Instruments
{"strings":[[[".",".",".",".",".",4,".",".",".",".",".",".",4,".",".",".",".",".",".",4,"."],[".",".",".",".",2,".",2,".",".",".",".",2,".",2,".",".",".",".",2,".",2],[".",".",".",".",".",".",".",".",".",".",".",".",".",".",".",".",".",".",".",".","."],[".",".",".",".",".",".",".",".",".",".",".",".",".",".",".",".",".",".",".",".","."],[0,0,0,0,".",".",".",2,2,2,2,".",".",".",4,4,4,4,".",".","."],[".",".",".",".",".",".",".",".",".",".",".",".",".",".",".",".",".",".",".",".","."]],[[".",".",".",".",".",4,".",".",".",".",".",".",4,".",".",".",".",".",".",4,"."],[".",".",".",".",2,".",2,".",".",".",".",2,".",2,".",".",".",".",2,".",2],[".",".",".",".",".",".",".",".",".",".",".",".",".",".",".",".",".",".",".",".","."],[".",".",".",".",".",".",".",".",".",".",".",".",".",".",".",".",".",".",".",".","."],[0,0,0,0,".",".",".",2,2,2,2,".",".",".",4,4,4,4,".",".","."],[".",".",".",".",".",".",".",".",".",".",".",".",".",".",".",".",".",".",".",".","."]]],"numberofstrings":6,"notes":["E","B","G","D","A","E","B"],"capo":0,"stringnotes":["E4","B3","G3","D3","A2","E2"],"comments":["Stave 1:","Stave 2:","Stave 3:","Stave 4:","Stave 5:"],"timing":[["W","W","W","W","W","W","W","W","W","W","W","W","W","W","W","W","W","W","W","W","W","W","W"],["W","W","W","W","W","W","W","W","W","W","W","W","W","W","W","W","W","W","W","W","W"],[],[],[]],"timingvisible":false,"tabcounter":21,"stave":0,"totalstaves":2,"instrument":"6guitar","selectedtuning":"6_standard","version":"13"}

Member for

1 week 2 days
Submitted by profbinks on Mon, 2021-02-22 16:50