Sound will begin in 5 seconds

experimental guitar part 1

Chords
01234567891011121314151617181920212223
E
B
G
D
A
E
B
0 1 2 3 4 5 6 7 8 9 10 11 12 13 14 15 16 17 18 19 20 21 22 23
Song Science #1: How Pros Use 6 Chords to Write Hit Songs
(/) Slide Up  (\) Slide Down  (h) Hammer On  (p) Pull Off  (b) Bend (r) Release (v) Vibrato

intro

E|--------3-----------5-----------7--------------3-----------5-----------7-----6--7--------------3-----
B|-----3-----------5-----------7--------------3-----------5-----------7--------6--7-----------3--------
G|--3-----------5-----------7--------------3-----------5-----------7-----------6--7--------3-----------
D|-----------------------------------------------------------------------------------------------------
A|-----------------------------------------------------------------------------------------------------
E|-----------------------------------------------------------------------------------------------------

intro

E|-----5-----------7--------------3-----------5-----------7-----6--7--------------3-----------5--------
B|--5-----------7--------------3-----------5-----------7--------6--7-----------3-----------5-----------
G|-----------7--------------3-----------5-----------7-----------6--7--------3-----------5-----------7--
D|-----------------------------------------------------------------------------------------------------
A|-----------------------------------------------------------------------------------------------------
E|-----------------------------------------------------------------------------------------------------

intro

E|--7--------------3-----------5-----------7-----6--7--------------3-----------5-----------7--------
B|--------------3-----------5-----------7--------6--7-----------3-----------5-----------7-----------
G|-----------3-----------5-----------7-----------6--7--------3-----------5-----------7--------------
D|--------------------------------------------------------------------------------------------------
A|--------------------------------------------------------------------------------------------------
E|--------------------------------------------------------------------------------------------------

intro into verse

E|--3-----------5-----------7-----6--7--------3--3--3--3--3--3--3--5--5--5--5--5--5--5--5--7--7--7--7--
B|-----------5-----------7--------6--7--------3--3--3--3--3--3--3--5--5--5--5--5--5--5--5--7--7--7--7--
G|--------5-----------7-----------6--7--------3--3--3--3--3--3--3--5--5--5--5--5--5--5--5--7--7--7--7--
D|-----------------------------------------------------------------------------------------------------
A|-----------------------------------------------------------------------------------------------------
E|-----------------------------------------------------------------------------------------------------

verse btw do the whole verse 4 times

E|--7--7--7--7--7--7--6-----7--
B|--7--7--7--7--7--7--6-----7--
G|--7--7--7--7--7--7--6-----7--
D|-----------------------------
A|-----------------------------
E|-----------------------------

http://www.guitartabcreator.com
Guitar Tab Creator is intended to store guitar tab created through the tool. It currently does not support in-line text editing. Any text you place in here will be lost. If you need to comment on your tab, please use the "Tab Notes" section located below.