Punteo y Arpegio

Chords

01234567891011121314151617181920212223
E
B
G
D
A
E
B
0 1 2 3 4 5 6 7 8 9 10 11 12 13 14 15 16 17 18 19 20 21 22 23
(/) Slide Up  (\) Slide Down  (h) Hammer On  (p) Pull Off  (b) Bend (r) Release (v) Vibrato

Stave 1:

E|--2--2--2--3--0--2--|--2--2--2--3--0--------------|--------------------|-----------------3--2--0--|--
B|--------------------|-----------------3--2--3--5--|--3--3--3--0--2--3--|--3--3--3--0--3-----------|--
G|--------------------|-----------------------------|--------------------|--------------------------|--
D|--------------------|-----------------------------|--------------------|--------------------------|--
A|--------------------|-----------------------------|--------------------|--------------------------|--
E|--------------------|-----------------------------|--------------------|--------------------------|--

Stave 2:

E|-----------2--0-----|-----------2--0-----------|--------------------------|-----------------3--0--2--|--
B|--------3--------3--|--------3--------0--3--2--|--3--3--3--0--3--5--3--2--|--3--3--3--0--3--------3--|--
G|-----2--------------|-----2-----------------2--|--------------------------|-----------------------2--|--
D|--0-----------------|--0--------------------2--|--------------------------|--------------------------|--
A|--------------------|--------------------------|--------------------------|--------------------------|--
E|--------------------|--------------------------|--------------------------|--------------------------|--

							http://www.guitartabcreator.com
Tab Notes
Stave 2: Pongo acorde Re Mayor Cuando aprendes a sufrir porque te deja de amar y solo queda despedir lo que es el pasado ya Solo te queda aprender aprender a recordar una parte de su ser que es parte de tu ser ya Qué bonito es el ayer cuando miras hacia atrás pero tiene que valer para ayudarte a avanzar Para hacerte a tí crecer cuando su mano te da para ayudarte a vencer a cualquier adversidad
Instruments
{"strings":[[[2,2,2,3,0,2,"|",2,2,2,3,0,".",".",".",".","|",".",".",".",".",".",".","|",".",".",".",".",".",3,2,0,"|"],[".",".",".",".",".",".","|",".",".",".",".",".",3,2,3,5,"|",3,3,3,0,2,3,"|",3,3,3,0,3,".",".",".","|"],[".",".",".",".",".",".","|",".",".",".",".",".",".",".",".",".","|",".",".",".",".",".",".","|",".",".",".",".",".",".",".",".","|"],[".",".",".",".",".",".","|",".",".",".",".",".",".",".",".",".","|",".",".",".",".",".",".","|",".",".",".",".",".",".",".",".","|"],[".",".",".",".",".",".","|",".",".",".",".",".",".",".",".",".","|",".",".",".",".",".",".","|",".",".",".",".",".",".",".",".","|"],[".",".",".",".",".",".","|",".",".",".",".",".",".",".",".",".","|",".",".",".",".",".",".","|",".",".",".",".",".",".",".",".","|"]],[[".",".",".",2,0,".","|",".",".",".",2,0,".",".",".","|",".",".",".",".",".",".",".",".","|",".",".",".",".",".",3,0,2,"|"],[".",".",3,".",".",3,"|",".",".",3,".",".",0,3,2,"|",3,3,3,0,3,5,3,2,"|",3,3,3,0,3,".",".",3,"|"],[".",2,".",".",".",".","|",".",2,".",".",".",".",".",2,"|",".",".",".",".",".",".",".",".","|",".",".",".",".",".",".",".",2,"|"],[0,".",".",".",".",".","|",0,".",".",".",".",".",".",2,"|",".",".",".",".",".",".",".",".","|",".",".",".",".",".",".",".",".","|"],[".",".",".",".",".",".","|",".",".",".",".",".",".",".",".","|",".",".",".",".",".",".",".",".","|",".",".",".",".",".",".",".",".","|"],[".",".",".",".",".",".","|",".",".",".",".",".",".",".",".","|",".",".",".",".",".",".",".",".","|",".",".",".",".",".",".",".",".","|"]]],"numberofstrings":6,"notes":["E","B","G","D","A","E","B"],"capo":0,"stringnotes":["E4","B3","G3","D3","A2","E2"],"comments":["Stave 1:","Stave 2:"],"timing":[["W","W","W","W","W","W",null,"W","W","W","W","W","W","W","W","W",null,"W","W","W","W","W","W",null,"W","W","W","W","W","W","W","W"],["W","W","W","W","W","W",null,"W","W","W","W","W","W","W","W",null,"W","W","W","W","W","W","W","W","W","W","W","W","W","W","W","W","W","W","W"]],"timingvisible":false,"tabcounter":34,"stave":1,"totalstaves":2,"instrument":"6guitar","selectedtuning":"6_standard","version":"13"}

Member for

1 month 1 week
Submitted by Prixero on Fri, 2020-11-20 02:29