Corriente

Chords

01234567891011121314151617181920212223
E
B
G
D
A
E
B
0 1 2 3 4 5 6 7 8 9 10 11 12 13 14 15 16 17 18 19 20 21 22 23
(/) Slide Up  (\) Slide Down  (h) Hammer On  (p) Pull Off  (b) Bend (r) Release (v) Vibrato

Intro Punteo

E|-----------------------------------------------------------------------------------------------------------------------------------------
B|--------------------------------------------------------------------------------------------------------------------------------------1--
G|-----------------------------------------------------------------------------------------------------------------------------------------
D|----------------------------------------------------------------------3--2--3--0--2--------------3--2--0--0v--\2--2--2--3----------2--2--
A|--------------3--2--3--2--0-----------------3--2--3--0v--\3--3--3--3-----------------3--3--3--3----------------------------3\3--3-----3--
E|--3--3--3--3--------------------3--3--3--3-----------------------------------------------------------------------------------------------

Ronda 1 solo Guitarra. Ronda 2 cantada

E|-----2--2--------2--2--------3--3--2--2--3--3-----|--
B|-----3--3--1--1--3--3--1--1--------3--3--------1--|--
G|-----2--2--------2--2--------------2--2-----------|--
D|-----------2--2--------2--2--------------------2--|--
A|-----------3--3--------3--3--2--2--------2--2--3--|--
E|-----------------------------3--3--------3--3--------

Cierre y Cantada Final

E|-----3--3-----|-----2--2--3--
B|--1--------1--|--1--3--3-----
G|--------------|-----2--2-----
D|--2--------2--|--2-----------
A|--3--2--2--3--|--3--------2--
E|-----3--3-----|-----------3--

							http://www.guitartabcreator.com
Tab Notes
Y si la corriente me arrastra Si me lleva hasta el final Si con el final no me alcanza Algo estaré haciendo mal Y si no te digo Ya Basta! Es que no me quiero marchar Es que estoy echándote en falta Es que no te quiero soltar Y si la corriente me arrastra Yo voy a dejarme llevar
Instruments
{"strings":[[[".",".",".",".",".",".",".",".",".",".",".",".",".",".",".",".",".",".",".",".",".",".",".",".",".",".",".",".",".",".",".",".",".",".",".",".",".",".",".",".",".",".",".",".",".",".",".",".","."],[".",".",".",".",".",".",".",".",".",".",".",".",".",".",".",".",".",".",".",".",".",".",".",".",".",".",".",".",".",".",".",".",".",".",".",".",".",".",".",".",".",".",".",".",".",".",".",".",1],[".",".",".",".",".",".",".",".",".",".",".",".",".",".",".",".",".",".",".",".",".",".",".",".",".",".",".",".",".",".",".",".",".",".",".",".",".",".",".",".",".",".",".",".",".",".",".",".","."],[".",".",".",".",".",".",".",".",".",".",".",".",".",".",".",".",".",".",".",".",".",".",".",".",3,2,3,0,2,".",".",".",".",3,2,0,0,"v","\\",2,2,2,3,".",".",".",".",2,2],[".",".",".",".",3,2,3,2,0,".",".",".",".",".",3,2,3,0,"v","\\",3,3,3,3,".",".",".",".",".",3,3,3,3,".",".",".",".",".",".",".",".",".",".",3,"\\",3,3,".",3],[3,3,3,3,".",".",".",".",".",".",3,3,3,3,".",".",".",".",".",".",".",".",".",".",".",".",".",".",".",".",".",".",".",".",".",".",".",".",".",".",".",".",".",".",".",".",".",".","."]],[[".",2,2,".",".",2,2,".",".",3,3,2,2,3,3,".","|"],[".",3,3,1,1,3,3,1,1,".",".",3,3,".",".",1,"|"],[".",2,2,".",".",2,2,".",".",".",".",2,2,".",".",".","|"],[".",".",".",2,2,".",".",2,2,".",".",".",".",".",".",2,"|"],[".",".",".",3,3,".",".",3,3,2,2,".",".",2,2,3,"|"],[".",".",".",".",".",".",".",".",".",3,3,".",".",3,3,".","."]],[[".",3,3,".","|",".",2,2,3],[1,".",".",1,"|",1,3,3,"."],[".",".",".",".","|",".",2,2,"."],[2,".",".",2,"|",2,".",".","."],[3,2,2,3,"|",3,".",".",2],[".",3,3,".","|",".",".",".",3]]],"numberofstrings":6,"notes":["E","B","G","D","A","E","B"],"capo":0,"stringnotes":["E4","B3","G3","D3","A2","E2"],"comments":["Intro Punteo","Ronda 1 solo Guitarra. Ronda 2 cantada","Cierre y Cantada Final"],"timing":[[null,null,null,null,null,null,null,"W","W","W","W","W","W","W","W","W","W","W","W","W","W","W","W","W","W","W","W","W","W","W","W","W","W","W","W","W",null,"W","W","W","W","W","W",null,"W","W","W","W","W","W","W"],["W","W","W","W","W","W","W","W","W","W","W","W","W","W","W","W"],["W","W","W","W",null,"W","W","W","W","W","W","W"]],"timingvisible":false,"tabcounter":9,"stave":2,"totalstaves":3,"instrument":"6guitar","selectedtuning":"6_standard","version":"13"}

Member for

1 month 1 week
Submitted by Prixero on Fri, 2020-10-23 09:00