Autumn Leaves

Chords

01234567891011121314151617181920212223
E
B
G
D
A
E
B
0 1 2 3 4 5 6 7 8 9 10 11 12 13 14 15 16 17 18 19 20 21 22 23
(/) Slide Up  (\) Slide Down  (h) Hammer On  (p) Pull Off  (b) Bend (r) Release (v) Vibrato

Stave 1:

G|-----------8-----------7--7--------------------5--7--5--3--5--3--------------8-----------------7--7--7--5--------------------5--7--5--------5--------
D|--5--7--8--------5--7-----------------5--7--8--------------------------5--7--------5--7--5-----------------8--7--5--5--7--8--------------7--------8--
A|--------------8--------------5--6--8-----------------------------6--8-----------8-----------8--------------------------------------------------------
E|-----------------------------------------------------------------------------------------------------------------------------------------------------

Stave 2:

G|--------------------------------------------------------5-----5--5-----10--8--7--7--7--10--8--
D|-----5--5--5--4--5--7-----------7--5--7--8--8-----7--8----------------------------------------
A|-----------------------5-----------------------------------8--------8-------------------------
E|----------------------------------------------------------------------------------------------

							http://www.guitartabcreator.com
Instruments
{"strings":[[[".","_",".",8,".",".",".",7,7,"_",".",".",".",".",".",5,7,5,3,5,3,".",".",".",".",8,".",".",".",".",".",7,7,7,5,".",".",".",".",".",".",5,7,5,".",".",5,".","."],[5,7,8,".",".",5,7,".",".","_",".",".",5,7,8,".",".",".",".",".",".",".",".",5,7,".",".",5,7,5,".",".",".",".",".",8,7,5,5,7,8,".",".",".",".",7,".",".",8],[".","_",".",".",8,".",".",".",".",5,6,8,".",".",".",".",".",".",".",".",".",6,8,".",".",".",8,".",".",".",8,".",".",".",".",".",".",".",".",".",".",".",".",".",".",".",".",".","."],[".","_",".",".",".",".",".",".",".","_",".",".",".",".",".",".",".",".",".",".",".",".",".",".",".",".",".",".",".",".",".",".",".",".",".",".",".",".",".",".",".",".",".",".",".",".",".",".","."]],[[".",".",".",".",".",".",".",".",".",".",".",".",".",".",".","_",".",".",5,".",5,5,".",10,8,7,7,7,10,8],[".",5,5,5,4,5,7,".",".",".",7,5,7,8,8,"_",7,8,".",".",".",".",".",".",".",".",".",".",".","."],[".",".",".",".",".",".",".",5,".",".",".",".",".",".",".","_",".",".",".",8,".",".",8,".",".",".",".",".",".","."],[".",".",".",".",".",".",".",".",".",".",".",".",".",".",".","_",".",".",".",".",".",".",".",".",".",".",".",".",".","."]]],"numberofstrings":4,"notes":["G","D","A","E"],"capo":0,"stringnotes":["G2","D2","A1","E1"],"comments":["Stave 1:","Stave 2:"],"timing":[["W","W","W","W","W","W","W","W","W","W","W","W","W","W","W","W","W","W","W","W","W","W","W","W","W","W","W","W","W","W","W","W","W","W","W","W","W","W","W","W","W","W","W","W","W","W","W","W","W","W","W"],["W","W","W","W","W","W","W","W",null,null,"W","W","W","W","W","W","W","W","W","W","W","W","W","W","W","W","W","W","W","W"]],"timingvisible":false,"tabcounter":30,"stave":0,"totalstaves":2,"instrument":"4bass","selectedtuning":"4bass","version":"13"}

Member for

2 months 4 weeks
Submitted by primus on Thu, 2020-08-27 09:56