Somebody Give Me A Grade by The Baljeatles

Chords
01234567891011121314151617181920212223
E
B
G
D
A
E
B
0 1 2 3 4 5 6 7 8 9 10 11 12 13 14 15 16 17 18 19 20 21 22 23
(/) Slide Up  (\) Slide Down  (h) Hammer On  (p) Pull Off  (b) Bend (r) Release (v) Vibrato
intro                     verse                              chorus
E|-----------------------|-----------------------------------|  |---------------------------------|
B|-----------------------|-----------------------------------|  |---------------------------------|
G|-----------------------|-----------------------------------|x4|-----------------7-7-7-7-7-7-7-7-|
D|-4-4--x--4-4--x--4-4\7-|-4-4--x--4-4-4--x--4-4--x--4-4-4\7-|  |-7-7-7-7-7-7-7-7-7-7-7-7-7-7-7-7-|
A|-4-4--x--4-4--x--4-4\7-|-4-4--x--4-4-4--x--4-4--x--4-4-4\7-|  |-7-7-7-7-7-7-7-7-5-5-5-5-5-5-5-5-|
E|-2-2--x--2-2--x--2-2\5-|-2-2--x--2-2-2--x--2-2--x--2-2-2\5-|  |-5-5-5-5-5-5-5-5-----------------|
                                
E|---------------------------------|  |---|pattern:intro, verse, chorus, verse, verse, chorus
B|---------------------------------|  |---| chorus can be strummed in a few patterns but this is
G|-4-4-4-4-4-4-4-4-----------------|x4|---| the easiest.
D|-4-4-4-4-4-4-4-4-4-4-4-4-4-4-4-4-|  |-7-|   p.s. i dont know the ending yet.
A|-2-2-2-2-2-2-2-2-4-4-4-4-4-4-4-4-|  |-7-|
E|-----------------2-2-2-2-2-2-2-2-|  |-5-|			http://www.guitartabcreator.com
genre

Member for

8 years 9 months
Submitted by ppp129 on Mon, 2011-08-08 14:03