Stone Roses Waterfall

Chords

01234567891011121314151617181920212223
E
B
G
D
A
E
B
0 1 2 3 4 5 6 7 8 9 10 11 12 13 14 15 16 17 18 19 20 21 22 23
(/) Slide Up  (\) Slide Down  (h) Hammer On  (p) Pull Off  (b) Bend (r) Release (v) Vibrato

Stave 1:

E|--------------------------------------|--------------------------------------|--
B|--------3-----------------------------|--------3-----------------------------|--
G|-----------2--------0--------0-----0--|-----------2--------0--------0-----0--|--
D|--0-----------0-----------------4-----|--0-----------0-----------------4-----|--
A|--------------------------------------|--------------------------------------|--
E|--------------------------------------|--------------------------------------|--

Stave 2:

E|--------------------------------------------|-----------------------------------------|--
B|--------3-----------3-----------3-----------|--------3-----------3-----------3--------|--
G|-----------0-----------0-----------0--------|-----------0-----------0-----------0-----|--
D|--5-----------4-----------2-----------2-----|--5-----------4-----------2-----------2--|--
A|--------------------------------------------|-----------------------------------------|--
E|--------------------------------------------|-----------------------------------------|--

							http://www.guitartabcreator.com
Instruments
{"strings":[[[".","_",".",".",".","_",".","_","_",".",".",".","|",".","_",".",".",".","_",".","_","_",".",".",".","|"],[".","_",3,".",".","_",".","_","_",".",".",".","|",".","_",3,".",".","_",".","_","_",".",".",".","|"],[".","_",".",2,".","_",0,"_","_",0,".",0,"|",".","_",".",2,".","_",0,"_","_",0,".",0,"|"],[0,"_",".",".",0,"_",".","_","_",".",4,".","|",0,"_",".",".",0,"_",".","_","_",".",4,".","|"],[".","_",".",".",".","_",".","_","_",".",".",".","|",".","_",".",".",".","_",".","_","_",".",".",".","|"],[".","_",".",".",".","_",".","_","_",".",".",".","|",".","_",".",".",".","_",".","_","_",".",".",".","|"]],[[".","_",".",".",".","_",".",".",".","_",".",".",".","_","|",".","_",".",".",".","_",".",".",".","_",".",".",".","|"],[".","_",3,".",".","_",3,".",".","_",3,".",".","_","|",".","_",3,".",".","_",3,".",".","_",3,".",".","|"],[".","_",".",0,".","_",".",0,".","_",".",0,".","_","|",".","_",".",0,".","_",".",0,".","_",".",0,".","|"],[5,"_",".",".",4,"_",".",".",2,"_",".",".",2,"_","|",5,"_",".",".",4,"_",".",".",2,"_",".",".",2,"|"],[".","_",".",".",".","_",".",".",".","_",".",".",".","_","|",".","_",".",".",".","_",".",".",".","_",".",".",".","|"],[".","_",".",".",".","_",".",".",".","_",".",".",".","_","|",".","_",".",".",".","_",".",".",".","_",".",".",".","|"]]],"numberofstrings":6,"notes":["E","B","G","D","A","E","B"],"capo":0,"stringnotes":["E4","B3","G3","D3","A2","E2"],"comments":["Stave 1:","Stave 2:"],"timing":[["W","W","W","W","W","W","W","W","W","W","W","W",null,"W",null,"W","W","W",null,"W",null,null,"W","W","W"],["W",null,"W","W","W",null,"W","W","W",null,"W","W","W",null,null,"W",null,"W","W","W",null,"W","W","W",null,"W","W","W"]],"timingvisible":false,"tabcounter":29,"stave":1,"totalstaves":2,"instrument":"6guitar","selectedtuning":"6_standard","version":"13"}

Member for

4 months 2 weeks
Submitted by powellst90 on Thu, 2020-07-30 08:46