Sound will begin in 5 seconds

Life Passes - Implants

Chords
01234567891011121314151617181920212223
E
B
G
D
A
E
B
0 1 2 3 4 5 6 7 8 9 10 11 12 13 14 15 16 17 18 19 20 21 22 23
Song Science #1: How Pros Use 6 Chords to Write Hit Songs
(/) Slide Up  (\) Slide Down  (h) Hammer On  (p) Pull Off  (b) Bend (r) Release (v) Vibrato

Stave 1:

E|----------------------------------------
B|----------------------------------------
G|-11-----11-----11-----11-----11---------
D|-9--9-9-9--9-9-9--9-9-9--9-9-9--9-9-9-9-
A|----------------------------------------
E|----------------------------------------

Stave 2:

E|--------------------------------------
B|--------------------------------------
G|--------11-----11-----9-----8-----8h9-
D|----9-9----9-9----9-9---9-9---9-9-----
A|--------------------------------------
E|--------------------------------------

Stave 3:

E|---------------------------------------------------
B|---------------------------------------------------
G|-----6-----6-----8-----6-----6\4-4-4-4-------4-4-4-
D|-4-4---4-4---4-4---4-4---4-4-----2-2-2-2-2-2-2-2-2-
A|---------------------------------------------------
E|---------------------------------------------------

Stave 4:

E|----------------------------
B|----------------------------
G|------9----8---------6------
D|-9----9----8----6----6----4-
A|-9----7----6----6----4----4-
E|-7--------------4---------2-

Stave 5:

E|------------------------------------------------------------------------------------
B|------------------------------------------------------------------------------------
G|------------------------------------------------------------------------------------
D|-2----------4----6----2----------9----6----2-------------4----6-2----------4-------
A|-2----------4----6----2----------9----6----2-------------4----6-2----------4-------
E|-0----------2----4----0----------7----4----0-------------2----4-0----------2-------

Stave 6:

E|-----------------------------------------------------------------
B|-----------------------------------------------------------------
G|-----------------------------------------------------------------
D|-----------------------------------------------------------------
A|---------------------------------6-6-6-6-6-6-6-6-7-7-7-7-7-7-7-7-
E|-7-7-7-7-7-7-7-7-9-9-9-9-9-9-9-9---------------------------------

Stave 7:

E|-------------14----------------------14----------------------------------------------------------
B|-16-14-16-17----17-16-14-16-14-16-17----17-16-14-------------16----------------------16----------
G|-------------------------------------------------16-15-16-18----18-16-15-16-15-16-18----18-16-15-
D|-------------------------------------------------------------------------------------------------
A|-------------------------------------------------------------------------------------------------
E|-------------------------------------------------------------------------------------------------

Stave 8:

E|-------------------------------------------------------------------
B|-------------12----------------------12----------14-12-11----11-12-
G|-13-11-13-15----15-13-11-13-11-13-15----15-13-11----------13-------
D|-------------------------------------------------------------------
A|-------------------------------------------------------------------
E|-------------------------------------------------------------------

Stave 9:

E|-21-19-18-19----19-21-19-18-19----19-21-19-18-19----19-18-------18-19-18----18-19----18-------
B|-------------19----------------19----------------19-------21-19----------21----------------21-
G|----------------------------------------------------------------------------------------------
D|----------------------------------------------------------------------------------------------
A|----------------------------------------------------------------------------------------------
E|----------------------------------------------------------------------------------------------

http://www.guitartabcreator.com
Guitar Tab Creator is intended to store guitar tab created through the tool. It currently does not support in-line text editing. Any text you place in here will be lost. If you need to comment on your tab, please use the "Tab Notes" section located below.