Sound will begin in 5 seconds

clocks- coldplay (with kapo)

Chords
01234567891011121314151617181920212223
E
B
G
D
A
E
B
0 1 2 3 4 5 6 7 8 9 10 11 12 13 14 15 16 17 18 19 20 21 22 23
(/) Slide Up  (\) Slide Down  (h) Hammer On  (p) Pull Off  (b) Bend (r) Release (v) Vibrato

notes

E|--11----------11----------11------9----------9----------9------9----------9----------9------8---------8---------8-----------
B|------11----------11----------11-----11---------11---------11-----11---------11---------11-----9---------9---------9--------
G|----------12----------12-----------------10---------10----------------10---------10---------------10--------10--------------
D|----------------------------------------------------------------------------------------------------------------------------
A|----------------------------------------------------------------------------------------------------------------------------
E|----------------------------------------------------------------------------------------------------------------------------

chords

E|--3--------------0--------------0-----------------------------------------------------------------------
B|--4--------------2--------------0-----------------------------------------------------------------------
G|--3--------------3--------------0-----------------------------------------------------------------------
D|--0--------------3--------------3-----------------------------------------------------------------------
A|--0--------------0--------------3-----------------------------------------------------------------------
E|--0--------------0--------------0-----------------------------------------------------------------------

bridge chords

E|--1--0-----------0--------------4-----------------------------------------------------------------------
B|--1--0-----------2--------------0-----------------------------------------------------------------------
G|--1--3-----------0--------------0-----------------------------------------------------------------------
D|--1--0-----------3--------------0-----------------------------------------------------------------------
A|--1--4-----------4--------------3-----------------------------------------------------------------------
E|--1--0-----------0--------------4-----------------------------------------------------------------------

http://www.guitartabcreator.com
Guitar Tab Creator is intended to store guitar tab created through the tool. It currently does not support in-line text editing. Any text you place in here will be lost. If you need to comment on your tab, please use the "Tab Notes" section located below.