New Life Rhythm

Chords

01234567891011121314151617181920212223
E
B
G
D
A
E
B
0 1 2 3 4 5 6 7 8 9 10 11 12 13 14 15 16 17 18 19 20 21 22 23
(/) Slide Up  (\) Slide Down  (h) Hammer On  (p) Pull Off  (b) Bend (r) Release (v) Vibrato

Intro

E|--------------------------------------------------
B|--------------------------------------------------
G|--------------------------------------------------
D|--------------------------------------------------
A|--------------------------------------------------
E|--1--1--1--1/6--6--6--6\1--1--1--1/8--8/10/13-----

Verse

E|------------------------------------------------------------------
B|------------------------------------------------------------------
G|-----------------12--------------10--------------9--------------7-
D|------------------------------------------------------------------
A|--10/12--10--12------12--10--12------12--10--12-----12--10--12---/
E|------------------------------------------------------------------

Chorus

E|--------------------------------
B|--------------------------------
G|---------14--12---------12--10--
D|--------------------------------
A|--10/13----------10/12----------
E|--------------------------------

Prechorus

E|--------------------------------------------------------------------------------------------------------------------
B|--6---------10------------6---------10------------7------------10------------7------------10------------13--13--13--
G|--x--x--16--x---x--16-----x--x--16------x--16-----6--x--16-----10--x--16-----6--x--16-----10--x--13-----x---x---x---
D|--7---------10------------7---------10------------6------------10------------6------------10------------10--10--10--
A|--------------------------------------------------------------------------------------------------------------------
E|--------------------------------------------------------------------------------------------------------------------

Chorus

E|---------------------------------------
B|---------------------------------------
G|---------------------------------------
D|--3--3--3-8--8--8--8--3--3-8--8--8-----
A|--3--3--3-8--8--8--8--3--3-8--8--8-----
E|--1--1--1-6--6--6--6--1--1-6--6--6-----

							http://www.guitartabcreator.com
Instruments
{"strings":[[[".",".",".",".",".",".",".",".",".",".",".",".",".",".",".",".",".",".",".",".",".","."],[".",".",".",".",".",".",".",".",".",".",".",".",".",".",".",".",".",".",".",".",".","."],[".",".",".",".",".",".",".",".",".",".",".",".",".",".",".",".",".",".",".",".",".","."],[".",".",".",".",".",".",".",".",".",".",".",".",".",".",".",".",".",".",".",".",".","."],[".",".",".",".",".",".",".",".",".",".",".",".",".",".",".",".",".",".",".",".",".","."],[1,1,1,1,"/",6,6,6,6,"\\",1,1,1,1,"/",8,8,"/",10,"/",13,"."]],[[".",".",".",".",".",".",".",".",".",".",".",".",".",".",".",".",".",".","."],[".",".",".",".",".",".",".",".",".",".",".",".",".",".",".",".",".",".","."],[".",".",".",".",".",12,".",".",".",10,".",".",".",9,".",".",".",7,"."],[".",".",".",".",".",".",".",".",".",".",".",".",".",".",".",".",".",".","."],[10,"/",12,10,12,".",12,10,12,".",12,10,12,".",12,10,12,".","/"],[".",".",".",".",".",".",".",".",".",".",".",".",".",".",".",".",".",".","."]],[[".",".",".",".",".",".",".",".",".","."],[".",".",".",".",".",".",".",".",".","."],[".",".",".",14,12,".",".",".",12,10],[".",".",".",".",".",".",".",".",".","."],[10,"/",13,".",".",10,"/",12,".","."],[".",".",".",".",".",".",".",".",".","."]],[[".",".",".",".",".",".",".",".",".",".",".",".",".",".",".",".",".",".",".",".",".",".",".",".",".",".",".",".",".",".",".",".","."],[6,".",".",10,".",".",".",6,".",".",10,".",".",".",7,".",".",".",10,".",".",".",7,".",".",".",10,".",".",".",13,13,13],["x","x",16,"x","x",16,".","x","x",16,".","x",16,".",6,"x",16,".",10,"x",16,".",6,"x",16,".",10,"x",13,".","x","x","x"],[7,".",".",10,".",".",".",7,".",".",10,".",".",".",6,".",".",".",10,".",".",".",6,".",".",".",10,".",".",".",10,10,10],[".",".",".",".",".",".",".",".",".",".",".",".",".",".",".",".",".",".",".",".",".",".",".",".",".",".",".",".",".",".",".",".","."],[".",".",".",".",".",".",".",".",".",".",".",".",".",".",".",".",".",".",".",".",".",".",".",".",".",".",".",".",".",".",".",".","."]],[[".",".",".",".",".",".",".",".",".",".",".",".",".",".","."],[".",".",".",".",".",".",".",".",".",".",".",".",".",".","."],[".",".",".",".",".",".",".",".",".",".",".",".",".",".","."],[3,3,3,"/",8,8,8,8,3,3,"/",8,8,8,"."],[3,3,3,"/",8,8,8,8,3,3,"/",8,8,8,"."],[1,1,1,"/",6,6,6,6,1,1,"/",6,6,6,"."]]],"numberofstrings":6,"notes":["E","B","G","D","A","E","B"],"capo":0,"stringnotes":["E4","B3","G3","D3","A2","E2"],"comments":["Intro","Verse","Chorus","Prechorus","Chorus"],"timing":[["W","W","W","W","W","W","W","W","W","W",null,"W","W","W","W",null,"W","W",null,"W",null,"W"],[null,"W",null,"W","W","W","W","W","W","W","W","W","W","W","W","W","W","W","W","W","W","W","W","W","W","W","W","W","W","W","W","W","W","W","W","W","W",null,"W",null,"W","W","W","W","W","W","W",null,"W",null,"W","W","W","W","W","W","W","W"],[null,"W",null,"W","W","W",null,"W","W","W","W"],[null,"W","W","W","W","W","W","W","W","W","W","W",null,"W",null,null,null,null,null,null,null,null,"W",null,null,null,null,null,null,null,"W","W","W","W"],[null,"W","W","W",null,"W","W","W","W","W","W",null,"W","W","W","W","W"]],"timingvisible":false,"tabcounter":15,"stave":4,"totalstaves":5,"instrument":"6guitar","selectedtuning":"6_standard","version":"13"}

Member for

3 days 19 hours
Submitted by pooterdooter on Thu, 2020-10-15 15:34