New Life Lead

Chords

01234567891011121314151617181920212223
E
B
G
D
A
E
B
0 1 2 3 4 5 6 7 8 9 10 11 12 13 14 15 16 17 18 19 20 21 22 23
(/) Slide Up  (\) Slide Down  (h) Hammer On  (p) Pull Off  (b) Bend (r) Release (v) Vibrato

Chorus

E|------------8-----------5-----------3-----------------
B|------------------------------------------------6-----
G|--/7--5--7-----7--5--7-----7--5--7-----7--5--7--------
D|------------------------------------------------------
A|------------------------------------------------------
E|------------------------------------------------------

Prechorus

E|--------------------------------------------------------------------------|--------|--10---------------10-6--6--6--6-----13---------------13-6--
B|--8--x--13--------8\6--6--6--6--------10--x--13--------10--6--6--6--6-----|--x--2--|--10--x--13--------10\6--6--6--6-----13--x--13--------13-6--
G|--------------------------------------------------------------------------|--------|------------------------------------------------------------
D|--------------------------------------------------------------------------|--------|------------------------------------------------------------
A|--------------------------------------------------------------------------|--------|------------------------------------------------------------
E|--------------------------------------------------------------------------|--------|------------------------------------------------------------

Stave 3:

E|--------------------------------------------
B|--------------------------------------------
G|--10--10-17--17--17--10-9-10-17--17--17-----
D|--x------x---x---x---x--x---x--x---x---x------
A|--8---8--15--15--15--8--7-8--15--15--15-----
E|--------------------------------------------

							http://www.guitartabcreator.com
Instruments
{"strings":[[[".",".",".",".",8,".",".",".",5,".",".",".",3,".",".",".",".","."],[".",".",".",".",".",".",".",".",".",".",".",".",".",".",".",".",6,"."],["/",7,5,7,".",7,5,7,".",7,5,7,".",7,5,7,".","."],[".",".",".",".",".",".",".",".",".",".",".",".",".",".",".",".",".","."],[".",".",".",".",".",".",".",".",".",".",".",".",".",".",".",".",".","."],[".",".",".",".",".",".",".",".",".",".",".",".",".",".",".",".",".","."]],[[".",".",".",".",".",".",".",".",".",".",".",".",".",".",".",".",".",".",".",".",".",".",".",".","|",".",".","|",10,".",".",".",".",10,".",6,6,6,6,".",13,".",".",".",".",13,"/",6],[8,"x",13,".",".",8,"\\",6,6,6,6,".",".",10,"x",13,".",".",10,6,6,6,6,".","|","x",2,"|",10,"x",13,".",".",10,"\\",6,6,6,6,".",13,"x",13,".",".",13,"/",6],[".",".",".",".",".",".",".",".",".",".",".",".",".",".",".",".",".",".",".",".",".",".",".",".","|",".",".","|",".",".",".",".",".",".",".",".",".",".",".",".",".",".",".",".",".",".",".","."],[".",".",".",".",".",".",".",".",".",".",".",".",".",".",".",".",".",".",".",".",".",".",".",".","|",".",".","|",".",".",".",".",".",".",".",".",".",".",".",".",".",".",".",".",".",".",".","."],[".",".",".",".",".",".",".",".",".",".",".",".",".",".",".",".",".",".",".",".",".",".",".",".","|",".",".","|",".",".",".",".",".",".",".",".",".",".",".",".",".",".",".",".",".",".",".","."],[".",".",".",".",".",".",".",".",".",".",".",".",".",".",".",".",".",".",".",".",".",".",".",".","|",".",".","|",".",".",".",".",".",".",".",".",".",".",".",".",".",".",".",".",".",".",".","."]],[[".",".",".",".",".",".",".",".",".",".",".",".",".",".",".","."],[".",".",".",".",".",".",".",".",".",".",".",".",".",".",".","."],[10,10,"/",17,17,17,10,"\\",9,"/",10,"/",17,17,17,"."],["x",".",".","x","x","x","x",".","x",".","x",".","x","x","x","."],[8,8,"/",15,15,15,8,"\\",7,"/",8,"/",15,15,15,"."],[".",".",".",".",".",".",".",".",".",".",".",".",".",".",".","."]]],"numberofstrings":6,"notes":["E","B","G","D","A","E","B"],"capo":0,"stringnotes":["E4","B3","G3","D3","A2","E2"],"comments":["Chorus","Prechorus","Stave 3:"],"timing":[[null,"W","W","W","W","W","W","W","W","W","W","W","W","W","W","W","W","W"],[null,"W","W","W","W","W","W","W","W","W","W","W","W",null,"W",null,"W",null,null,"W","W","W","W","W",null,"W","W","W",null,"W",null,"W","W",null,"W",null,"W","W","W","W",null,"W",null,"W",null,null,"W",null,"W"],[null,"W","W",null,"W","W","W","W","W","W","W","W",null,"W","W","W"]],"timingvisible":false,"tabcounter":16,"stave":2,"totalstaves":3,"instrument":"6guitar","selectedtuning":"6_standard","version":"13"}

Member for

1 month 2 weeks
Submitted by pooterdooter on Thu, 2020-10-15 17:16