Sound will begin in 5 seconds

Taste Takers Outro

Chords
01234567891011121314151617181920212223
E
B
G
D
A
E
B
0 1 2 3 4 5 6 7 8 9 10 11 12 13 14 15 16 17 18 19 20 21 22 23
Song Science #1: How Pros Use 6 Chords to Write Hit Songs
(/) Slide Up  (\) Slide Down  (h) Hammer On  (p) Pull Off  (b) Bend (r) Release (v) Vibrato

Stave 1:

E|------------------------------------
B|------------------------------------
G|--7--------------1---------------7--
D|--7--7--9--------2--4/5-----5/7--7--
A|--5--7--9--------2--4-5-----5-7--5--
E|-----5--7--------0--2-3-----3-5-----

Stave 2:

E|------------------------------------------------------------
B|------------------------------------------------------------
G|--11--11----------11--11----------11--11----------11h12p11--
D|----------12--12----------12--12----------12--12------------
A|------------------------------------------------------------
E|------------------------------------------------------------

Stave 3:

E|--------------------------------------------------------
B|--------------------------------------------------------
G|--11--11----------11--11----------12hp0--11hp0--9h11p0--
D|----------12--12----------12--12------------------------
A|--------------------------------------------------------
E|--------------------------------------------------------

Stave 4:

E|------------------------------------------------------------
B|------------------------------------------------------------
G|--11--11----------11--11----------14------12------11h12p11--
D|----------12--12----------12--12------12------12------------
A|------------------------------------------------------------
E|------------------------------------------------------------

http://www.guitartabcreator.com
Guitar Tab Creator is intended to store guitar tab created through the tool. It currently does not support in-line text editing. Any text you place in here will be lost. If you need to comment on your tab, please use the "Tab Notes" section located below.