Sound will begin in 5 seconds

Clean My Head Pre-chorus Part 2

Chords
01234567891011121314151617181920212223
E
B
G
D
A
E
B
0 1 2 3 4 5 6 7 8 9 10 11 12 13 14 15 16 17 18 19 20 21 22 23
Song Science #1: How Pros Use 6 Chords to Write Hit Songs
(/) Slide Up  (\) Slide Down  (h) Hammer On  (p) Pull Off  (b) Bend (r) Release (v) Vibrato

Stave 1:

E|--------------------------------------------------------------------------------
B|--3-----------------------------------------------------------------------------
G|--4--------7--------5--------------------------------------5--5--5-----------2--
D|--4--------5--------5-----------x--x-----------------------5--5--5--5--5--5--1--
A|--2--------3--------6-----2--2--2--2-----------2--2--2--2--3--3--3--5--5--5--2--
E|--------------------------3--0--0--0-----------3--0--3--0-----------3--3--3-----

Stave 2:

E|------_---------_----------------------
B|------_---------_----------------------
G|--11--14--12-----17--14--16--12--14--11--
D|--x---x---x------x---x---x---x---x---x---
A|--9---12--10-----15--12--14--10--12--9---
E|------_---------_----------------------

Stave 3:

E|--------------------------------------------------
B|--------------------------------------------------
G|------12--11--12--14--11--12--14--11--12--14--12--
D|--10--12------------------------------------------
A|--10--10------------------------------------------
E|--8-----------------------------------------------

http://www.guitartabcreator.com
Guitar Tab Creator is intended to store guitar tab created through the tool. It currently does not support in-line text editing. Any text you place in here will be lost. If you need to comment on your tab, please use the "Tab Notes" section located below.