Sound will begin in 5 seconds

Op 36 No 3

Chords
01234567891011121314151617181920212223
E
B
G
D
A
E
B
0 1 2 3 4 5 6 7 8 9 10 11 12 13 14 15 16 17 18 19 20 21 22 23
Song Science #1: How Pros Use 6 Chords to Write Hit Songs
(/) Slide Up  (\) Slide Down  (h) Hammer On  (p) Pull Off  (b) Bend (r) Release (v) Vibrato

Stave 1:

E|-------------------------------------------------------------
B|--8---------------------8------------------------10--12--13--
G|-----9---------------------9----------9--10--12--------------
D|--------10--------------------10--12-------------------------
A|------------10--10--10---------------------------------------
E|-------------------------------------------------------------

Stave 2:

E|--------------------------------------------------------
B|--12--10--10--10--12--10--9--10--13--10--7--8--8--8--8--
G|--------------------------------------------------------
D|--------------------------------------------------------
A|--------------------------------------------------------
E|--------------------------------------------------------

Stave 3:

E|-----------------
B|--6--6--5--5--3--
G|--7--7--5--5--4--
D|-----------------
A|-----------------
E|-----------------

Stave 4:

E|-----------------
B|--8--8--6--6--5--
G|--9--9--7--7--5--
D|-----------------
A|-----------------
E|-----------------

Stave 5:

E|------------------------------------------------------
B|--10--6--------10--6-----------8----------------------
G|---------9--7---------9--7--9-----9------7--10--7-----
D|-------------------------------------10------------9--
A|------------------------------------------------------
E|------------------------------------------------------

Stave 6:

E|--------------------
B|--------------------
G|----------7--7--9---
D|--10--10--9--9--10--
A|--------------------
E|--------------------

Stave 7:

E|-----------------
B|-----------------
G|-----------------
D|--3--3--2--2--0--
A|--5--5--3--3--2--
E|-----------------

Stave 8:

E|----------------------------------------------------------------8--8--
B|----------------------------------------------------------------8--8--
G|--------------------------------------10--10--9---9---7--7------9--9--
D|--5--5--9--9--10--10--11--11--12--12--12--12--10--10--9--9--10--------
A|--7--7--8--8--7---7---10--10--12--12----------------------------------
E|----------------------------------------------------------------------

http://www.guitartabcreator.com
Guitar Tab Creator is intended to store guitar tab created through the tool. It currently does not support in-line text editing. Any text you place in here will be lost. If you need to comment on your tab, please use the "Tab Notes" section located below.