Sound will begin in 5 seconds

Never Knows Best

Chords
01234567891011121314151617181920212223
E
B
G
D
A
E
B
0 1 2 3 4 5 6 7 8 9 10 11 12 13 14 15 16 17 18 19 20 21 22 23
Learn to Play Guitar Online
(/) Slide Up  (\) Slide Down  (h) Hammer On  (p) Pull Off  (b) Bend (r) Release (v) Vibrato

Intro

E|--------------------------------------------------------------------------
B|--------------------------------------------------------------------------
G|--------5--------5--------5--------5--------5--------5--------5--------5--
D|--7--7-----7--7-----7--7-----7--7-----7--7-----7--7-----7--7-----7--7-----
A|--------------------------------------------------------------------------
E|--------------------------------------------------------------------------

Intro (contd)

E|--------------------------------------------------------------------------
B|--------------------------------------------------------------------------
G|--------7--------7--------7--------7--------7--------7--------7--------7--
D|--7--7-----7--7-----7--7-----7--7-----7--7-----7--7-----7--7-----7--7-----
A|--------------------------------------------------------------------------
E|--------------------------------------------------------------------------

Verse

E|--------------------------------------------------
B|--------------------------------------------------
G|--5-----------5-----------7--5--5--5--7--5--5--5--
D|--7--7--5--7--7--7--5--7--0-----------0-----------
A|--------------------------------------------------
E|--------------------------------------------------

Chorus

E|--------------------------------------------------------------------------------------------------
B|-----6-----6--5--5--5--5--5--5--5--5-----6-----6--5--5--5--5--5--5--5--5--------------------------
G|--7-----7-----------------------------7-----7-----------------------------5--5--5--5--------------
D|--------------------------------------------------------------------------------------7--7--7--7--
A|--------------------------------------------------------------------------------------------------
E|--------------------------------------------------------------------------------------------------

Bridge

E|--------------------------------------------------------------------------------------------------
B|--------------------------------------------------------------------------------------------------
G|--10--10--10--10--10--10--10--10--10--10--12--12--12--12--12--12--12--12--12--12--14--14--14--14--
D|--------------------------------------------------------------------------------------------------
A|--------------------------------------------------------------------------------------------------
E|--------------------------------------------------------------------------------------------------

Bridge (contd)

E|------------------------------------------
B|------------------------------------------
G|--14--14--14--14--12--12--12--12--14--12--
D|------------------------------------------
A|------------------------------------------
E|------------------------------------------

Alt Chorus near end

E|------------------------------------------------------------------------------------------------
B|-----6-----6--8--8--8--8--8--8--8--8-----6-----6--8--8--8--8--8--8--8--8--13--10--8--13--10--8--
G|--7-----7-----------------------------7-----7---------------------------------------------------
D|------------------------------------------------------------------------------------------------
A|------------------------------------------------------------------------------------------------
E|------------------------------------------------------------------------------------------------

http://www.guitartabcreator.com
Guitar Tab Creator is intended to store guitar tab created through the tool. It currently does not support in-line text editing. Any text you place in here will be lost. If you need to comment on your tab, please use the "Tab Notes" section located below.