Sound will begin in 5 seconds

Grandfather Clock

01234567891011121314151617181920212223
E
B
G
D
A
E
B
0 1 2 3 4 5 6 7 8 9 10 11 12 13 14 15 16 17 18 19 20 21 22 23
Learn to Play Guitar Online
(/) Slide Up  (\) Slide Down  (h) Hammer On  (p) Pull Off  (b) Bend (r) Release (v) Vibrato

Intro

E|--------------------------------------------------
B|--------------------------------------------------
G|--3--3--3--3--3--3--3--3--3--3--3--3--3--3--3--3--
D|--------------------------------------------------
A|--------------------------------------------------
E|--------------------------------------------------

Verse

E|--------------------------------------------------------------
B|--------------------------------------------------------------
G|--5--3-----3--5--3--------------5--3-----3--5--3--------------
D|--------5-----------5--5--5--5--------5-----------5--5--5--5--
A|--------------------------------------------------------------
E|--------------------------------------------------------------

Verse (cont)

E|--------------------------------------------------------------
B|--------------------------------------------------------------
G|--------3-----------3-----------------3-----------3-----------
D|--3--5-----5--3--5-----5--5--5--3--5-----5--3--5-----5--5--5--
A|--------------------------------------------------------------
E|--------------------------------------------------------------

Verse (cont)

E|--------------------------------------------------------------
B|--------------------------------------------------------------
G|--3-----3--5--7--5--3--5--3-----3-----3--5--7--5--3--5--3-----
D|-----5-----------------------5-----5-----------------------5--
A|--------------------------------------------------------------
E|--------------------------------------------------------------

Verse (cont)

E|--------------------------------------------------------------
B|--------------------------------------------------------------
G|--------3-----5--3--------------------3-----5--3--------------
D|--3--5-----5--------5--5--5--5--3--5-----5--------5--5--5--5--
A|--------------------------------------------------------------
E|--------------------------------------------------------------

Pre-Chorus

E|--------------------------------------------------------------------------------------
B|--------------------------------------------------------------------------------------
G|--------3--5--------3--5--------3--5--------3--5--------3--5--------3--5--------3--5--
D|--3--5--------3--5--------3--5--------3--5--------3--5--------3--5--------3--5--------
A|--------------------------------------------------------------------------------------
E|--------------------------------------------------------------------------------------

Pre-Chorus (cont)

E|--------------------------------------------------------------------------
B|--------------------------------------------------------------------------
G|--7--5--3--5--5--3--3--3--3--3--3--3--7--5--3--5--5--3--3--3--3--3--3--3--
D|--------------------------------------------------------------------------
A|--------------------------------------------------------------------------
E|--------------------------------------------------------------------------

Chorus

E|--------------------------------------------------------------------------
B|--------------------------------------------------------------------------
G|--7--7--7--7--7--7--7--7--7--7--7--7--8--8--8--8--8--8--8--8--8--8--8--8--
D|--------------------------------------------------------------------------
A|--------------------------------------------------------------------------
E|--------------------------------------------------------------------------

Chorus (cont)

E|--------------------------------------------------------------------------------------
B|--------------------------------------------------------------------------------------
G|--10--10--10--10--10--10--10--10--10--10--10--10--3--3--3--3--3--3--3--3--3--3--3--3--
D|--------------------------------------------------------------------------------------
A|--------------------------------------------------------------------------------------
E|--------------------------------------------------------------------------------------

Chorus (cont)

E|--------------------------------------------------------------------------
B|--------------------------------------------------------------------------
G|--7--7--7--7--7--7--7--7--7--7--7--7--8--8--8--8--8--8--8--8--8--8--8--8--
D|--------------------------------------------------------------------------
A|--------------------------------------------------------------------------
E|--------------------------------------------------------------------------

Chorus (cont)

E|--------------------------------------------------------------------------------------------------
B|--------------------------------------------------------------------------------------------------
G|--10--10--10--10--10--10--10--10--10--10--10--10--12--12--12--12--12--12--12--12--12--12--12--12--
D|--------------------------------------------------------------------------------------------------
A|--------------------------------------------------------------------------------------------------
E|--------------------------------------------------------------------------------------------------

http://www.guitartabcreator.com
Guitar Tab Creator is intended to store guitar tab created through the tool. It currently does not support in-line text editing. Any text you place in here will be lost. If you need to comment on your tab, please use the "Tab Notes" section located below.