Sound will begin in 5 seconds

Weight Of Love(L)

01234567891011121314151617181920212223
E
B
G
D
A
E
B
0 1 2 3 4 5 6 7 8 9 10 11 12 13 14 15 16 17 18 19 20 21 22 23
Song Science #1: How Pros Use 6 Chords to Write Hit Songs
(/) Slide Up  (\) Slide Down  (h) Hammer On  (p) Pull Off  (b) Bend (r) Release (v) Vibrato

Stave 1:

E|--------------------------------
B|--------------------------------
G|--------------------------------
D|-----------5----9-7----9-7----5-
A|----7----5----------------------
E|--------------------------------

Stave 2:

E|---------------------------------
B|--------5-7-5-------5------------
G|-4-7------------------7----4-----
D|-----------------------------5-7-
A|---------------------------------
E|---------------------------------

Stave 3:

E|---------------------------------7------------------------
B|-----------------10-10-10-7-7------10-7-10-10/7----5/7/---
G|-7/6----7-7/9---------------------------------------------
D|----------------------------------------------------------
A|----------------------------------------------------------
E|----------------------------------------------------------

Stave 4:

E|-5h7----5h7----5h7----5------5h7----5h7----5------7/10-5-------------------------
B|------------------------7--------------------7--------------3-5-3-2----2h3p2-----
G|-----------------------------------------------------------------------------2/4-
D|---------------------------------------------------------------------------------
A|---------------------------------------------------------------------------------
E|---------------------------------------------------------------------------------

http://www.guitartabcreator.com
Guitar Tab Creator is intended to store guitar tab created through the tool. It currently does not support in-line text editing. Any text you place in here will be lost. If you need to comment on your tab, please use the "Tab Notes" section located below.