Sound will begin in 5 seconds

Bridge 1

01234567891011121314151617181920212223
E
B
G
D
A
E
B
0 1 2 3 4 5 6 7 8 9 10 11 12 13 14 15 16 17 18 19 20 21 22 23
Song Science #1: How Pros Use 6 Chords to Write Hit Songs
(/) Slide Up  (\) Slide Down  (h) Hammer On  (p) Pull Off  (b) Bend (r) Release (v) Vibrato

Stave 1:

E|------------------------------------------------------------------------------|--
B|------------------------------------------------------------------------------|--
G|------------------------------------------------------------------------------|--
D|----------------------------------------------------7-------------------------|--
A|------------7--9--10-------7--9--10-------7--9--10-----10--9--7--9--10--9--7--|--
E|------7--0------------8\0------------9\0--------------------------------------|--

Stave 2:

E|----------------------------------------------------------------------------|--
B|----------------------------------------------------------------------------|--
G|----------------------------------------------------------------------------|--
D|-----------------------------------------------12--10--9------9--10--9------|--
A|----7v----7--5--7--7----7--5--7--7----7--5--7-------------12------------12--|--
E|----------------------------------------------------------------------------|--

Stave 3:

E|--------------
B|--------------
G|--9--9--x--x--x---x---x---
D|--9--9--x--x--x---x---x---
A|--7--7--x--x--x---x---x---
E|--7--8--x--x--x---x---x---

http://www.guitartabcreator.com
Guitar Tab Creator is intended to store guitar tab created through the tool. It currently does not support in-line text editing. Any text you place in here will be lost. If you need to comment on your tab, please use the "Tab Notes" section located below.