Sound will begin in 5 seconds

Hang me out to dry breakdown

01234567891011121314151617181920212223
E
B
G
D
A
E
B
0 1 2 3 4 5 6 7 8 9 10 11 12 13 14 15 16 17 18 19 20 21 22 23
(/) Slide Up  (\) Slide Down  (h) Hammer On  (p) Pull Off  (b) Bend (r) Release (v) Vibrato

Stave 1:

E|-----------------------------------------------------------------------------------------------------
B|-----------------------------------------------------------------------------------------------------
G|------------------------------------3--------5p3--------5/7--5\3--5p3--------3-----------------------
D|----------------3-----5p3--------------5--3-------5--3-----------------5--3-----5--3-----5--3--------
A|--------1--3/5-----5-------5--3-------------------------------------------------------5--------5-----
E|--1--3---------------------------6----------------------------------------------------------------0--

Stave 2:

E|-----------------------------------------------------------------
B|-----------------------------------------------------------------
G|-----------------------------------------------------------------
D|-----------------5--2-----2-----2--------------------------5--2--
A|-----------2--5--------------5-----5--2--------------2--5--------
E|-----3--5--------------------------------0-----3--5--------------

Stave 3:

E|-----------------------------------------------------------------------------------------
B|-----------------------------------------------------------------------------------------
G|-----------------------------------------------------------------------------------------
D|-----------------------------------------------------------------------------------------
A|--------1-----3-----1--------1-----3-----1-----------------------------------------------
E|--3--3-----3-----3-----3--3-----3-----3-----0--0--3--0--5--0--3--0--0--3--0--5--0--3--0--

http://www.guitartabcreator.com
Guitar Tab Creator is intended to store guitar tab created through the tool. It currently does not support in-line text editing. Any text you place in here will be lost. If you need to comment on your tab, please use the "Tab Notes" section located below.