Sound will begin in 5 seconds

Major Modes/Arpeggios

01234567891011121314151617181920212223
E
B
G
D
A
E
B
0 1 2 3 4 5 6 7 8 9 10 11 12 13 14 15 16 17 18 19 20 21 22 23
Song Science #1: How Pros Use 6 Chords to Write Hit Songs
(/) Slide Up  (\) Slide Down  (h) Hammer On  (p) Pull Off  (b) Bend (r) Release (v) Vibrato

Stave 1:

E|---------------------------2-3-5-------------------------------7-8-
B|-----------------------3-5-------------------------------5-7-8-----
G|-----------------2-4-5-----------------------------4-5-7-----------
D|-----------2-4-5-----------------------------4-5-7-----------------
A|-----2-3-5-----------------------------3-5-7-----------------------
E|-3-5-----------------------------3-5-7-----------------------------

Stave 2:

E|-------------3---------------7-10-
B|-----------3---------------8------
G|---------4-------------4-7--------
D|-------5-------------5------------
A|---2-5-------------5--------------
E|-3-------------3-7----------------

Stave 3:

E|-----------------------------5-7-8--------------------------------7-8-10-
B|-----------------------5-7-8-------------------------------7-8-10--------
G|-----------------4-5-7-------------------------------5-7-9---------------
D|-----------4-5-7-------------------------------5-7-9---------------------
A|-------5-7-------------------------------5-7-9---------------------------
E|-5-7-8-----------------------------5-7-8---------------------------------

Stave 4:

E|-------------5-8-12-----------------
B|-----------5---------------------10-
G|---------5---------------------9----
D|-------7------------------7-10------
A|-----7------------------7-----------
E|-5-8----------------5-8-------------

Stave 5:

E|-----------------------------5-7-8---------------------------------7-8-10-
B|-----------------------5-7-8--------------------------------7-8-10--------
G|-------------------5-7----------------------------------7-9---------------
D|-------------5-7-9-------------------------------7-9-10-------------------
A|-------5-7-9------------------------------7-9-10--------------------------
E|-5-7-8-----------------------------7-8-10---------------------------------

Stave 6:

E|-----------------5-7-------------------7-8-10-
B|---------------7---------------------7--------
G|-------------7---------------------7----------
D|---------7-9------------------9-10------------
A|-----5-9--------------------9-----------------
E|-5-7-----------------7-8-10-------------------

http://www.guitartabcreator.com
Guitar Tab Creator is intended to store guitar tab created through the tool. It currently does not support in-line text editing. Any text you place in here will be lost. If you need to comment on your tab, please use the "Tab Notes" section located below.