Sound will begin in 5 seconds

John & Jeff

Chords
01234567891011121314151617181920212223
E
B
G
D
A
E
B
0 1 2 3 4 5 6 7 8 9 10 11 12 13 14 15 16 17 18 19 20 21 22 23
Song Science #1: How Pros Use 6 Chords to Write Hit Songs
(/) Slide Up  (\) Slide Down  (h) Hammer On  (p) Pull Off  (b) Bend (r) Release (v) Vibrato

Stave 1:

E|--------------------------------------------
B|--------------------------------------------
G|-----------5--------------------7-----------
D|-----5--------7--7--7-----7--------9--9--9--
A|--------7--------6--6--------9--------7--7--
E|--7--------------7--7--9--------------9--9--

Stave 2:

E|--------------------------------------------------------------------
B|--------------------------------------------------------------------
G|--------------------4--------5--5--------------------2--------3--3--
D|-----------4--5--7-----7--5--4--4-----------2--3--5-----5--3--2--2--
A|--4--5--7--------------------5--5--2--3--5--------------------3--3--
E|--------------------------------------------------------------------

Stave 3:

E|----------------------------------------------------------------------
B|--8--7--7--6--6-------------------------------------------------------
G|--7--6--6--5--5--12--11--12--11--12--11--12--10--9--10--9--10--9--10--
D|--6--5--5--4--4--11--10--11--10--11--10--11--9---8--9---8--9---8--9---
A|--7--6--6--5--5--12--11--12--11--12--11--12--10--9--10--9--10--9--10--
E|----------------------------------------------------------------------

Stave 4:

E|----------------------------------------
B|------------------------------12--------
G|--------------2--2--------10------7--7--
D|--------------1--1-----9----------6--6--
A|--7--5--4--3--2--2--7-------------7--7--
E|----------------------------------------

Stave 5:

E|--------------------------------------------------------
B|--------------------------------------------------------
G|--------------------------------------------------------
D|--7-----------------5-----5--7-----------------5-----5--
A|-----4--5--6--7--7-----7--------4--5--6--7--7-----7-----
E|--------------------------------------------------------

Stave 6:

E|--------------------------------------------------------
B|--------------------------------------------------------
G|--------------------------------------------------------
D|--9-----------------7-----7--9-----------------7-----7--
A|-----6--7--8--9--9-----9--------6--7--8--9--9-----9-----
E|--------------------------------------------------------

Stave 7:

E|--------------------------------------------------------------------
B|------------8-------------------------------------------------------
G|--7--9--10-----10--9--7---------------9-----------------------------
D|-------------------------10--9--7--------------9--------4--------7--
A|-----------------------------------8-----7--------2--------5--------
E|--------------------------------------------8--------3--------6-----

Stave 8:

E|----------------------------------------------
B|--------------------------------3---------10--
G|--------7--------------4----------------------
D|-----6--------------3--------2---------9------
A|--7--------6--5--4--------3--------10---------
E|----------------------------------------------

http://www.guitartabcreator.com
Guitar Tab Creator is intended to store guitar tab created through the tool. It currently does not support in-line text editing. Any text you place in here will be lost. If you need to comment on your tab, please use the "Tab Notes" section located below.