pouding pain sec

Chords

01234567891011121314151617181920212223
E
B
G
D
A
E
B
0 1 2 3 4 5 6 7 8 9 10 11 12 13 14 15 16 17 18 19 20 21 22 23
(/) Slide Up  (\) Slide Down  (h) Hammer On  (p) Pull Off  (b) Bend (r) Release (v) Vibrato

Stave 1:

D|-------0--0--0----------------0--0-------------0--0--0---------1--1--1-------0-----------0--0--
B|-------0--0--0----------------0--0-------------0--0--0---------0--0--0-------0-----------0--0--
G|-------0--0--0----------------0--0-------------0--0--0---------0--0--0-------0-----------0--0--
D|-------0--0--0--7\5--5\3--3b1p0--0-------------0--0--0---------0--0--0-------0-----------0--0--
G|--5/7--0--0--0----------------0--0--5h7p5/3p0--0--0--0---------0--0--0-------0-----------0--0--
D|--------------------------------------------------------0h2/3--3--3--3--3h2--2--2h3p2p0--0--0--

Stave 2:

D|------------
B|------------
G|------------
D|------------
G|--0h3-------
D|-------3h0--

							http://www.guitartabcreator.com
Instruments
{"strings":[[[".",".",".",0,0,0,".",".",".",".",".",".",".",".",".",".",0,0,".",".",".",".",".",".",".",".",".",0,0,0,".",".",".",".",".",1,1,1,".",".",".",0,".",".",".",".",".",".",".",0,0],[".",".",".",0,0,0,".",".",".",".",".",".",".",".",".",".",0,0,".",".",".",".",".",".",".",".",".",0,0,0,".",".",".",".",".",0,0,0,".",".",".",0,".",".",".",".",".",".",".",0,0],[".",".",".",0,0,0,".",".",".",".",".",".",".",".",".",".",0,0,".",".",".",".",".",".",".",".",".",0,0,0,".",".",".",".",".",0,0,0,".",".",".",0,".",".",".",".",".",".",".",0,0],[".",".",".",0,0,0,7,"\\",5,5,"\\",3,3,"b",1,"p",0,0,".",".",".",".",".",".",".",".",".",0,0,0,".",".",".",".",".",0,0,0,".",".",".",0,".",".",".",".",".",".",".",0,0],[5,"/",7,0,0,0,".",".",".",".",".",".",".",".",".",".",0,0,5,"h",7,"p",5,"/",3,"p",0,0,0,0,".",".",".",".",".",0,0,0,".",".",".",0,".",".",".",".",".",".",".",0,0],[".",".",".",".",".",".",".",".",".",".",".",".",".",".",".",".",".",".",".",".",".",".",".",".",".",".",".",".",".",".",0,"h",2,"/",3,3,3,3,3,"h",2,2,2,"h",3,"p",2,"p",0,0,0]],[[".",".",".",".",".","."],[".",".",".",".",".","."],[".",".",".",".",".","."],[".",".",".",".",".","."],[0,"h",3,".",".","."],[".",".",".",3,"h",0]]],"numberofstrings":6,"notes":["D","B","G","D","G","D"],"capo":0,"stringnotes":["D3","B2","G2","D2","G1","D1"],"comments":["Stave 1:","Stave 2:"],"timing":[[null,null,null,null,null,null,null,null,null,null,null,null,null,null,null,null,null,null,null,null,null,null,null,null,null,null,null,null,null,null,null,null,null,null,null,null,null,null,null,null,null,null,null,null,null,null,null,null,null,null,null],[null,null,null,null,null,null]],"timingvisible":false,"tabcounter":6,"stave":1,"totalstaves":2,"instrument":"6guitar","selectedtuning":"Open G","version":"13"}

Member for

6 months
Submitted by plbabin on Mon, 2020-07-13 06:07