Sound will begin in 5 seconds

Canada Day

01234567891011121314151617181920212223
E
B
G
D
A
E
B
0 1 2 3 4 5 6 7 8 9 10 11 12 13 14 15 16 17 18 19 20 21 22 23
Song Science #1: How Pros Use 6 Chords to Write Hit Songs
(/) Slide Up  (\) Slide Down  (h) Hammer On  (p) Pull Off  (b) Bend (r) Release (v) Vibrato

Capo Fret 4

Stave 1:

E|--------------------------------------------------|--
B|--------0-----------0-----------0-----------------|--
G|-----------0-----------0-----------0-----------0--|--
D|-----2-----------2-----------2--------------4-----|--
A|--3-----------3-----------3-----------5--5--------|--
E|--------------------------------------------------|--

Stave 2:

E|--------------------------------------------------|--
B|--------0-----------------------0--------------0--|--
G|-----------0-----------0-----------0--------0-----|--
D|-----2--------------4--------2--------------------|--
A|--3-----------5--5--------3-----------5--5--------|--
E|--------------------------------------------------|--

Stave 3:

E|------------------------------------------------------|--------------------------------------------0-----|--
B|---------0------------0------------0------------0-----|--------0-----------0-----------0-----------------|--
G|------------0------------0------------0------------0--|-----------0-----------0-----------0-----------0--|--
D|------0------------0------------0------------0--------|-----0-----------0-----------0-----------0--------|--
A|--10-----------10-----------12-----------12-----------|--3-----------5-----------7-----------5-----------|--
E|------------------------------------------------------|--------------------------------------------------|--

Stave 4:

E|------------------------------------------------------|--------------------------------------------------|--
B|---------0------------0------------0------------0-----|--------0-----------0-----------0-----------0-----|--
G|------------0------------0------------0------------0--|-----------0-----------0-----------0-----------0--|--
D|------0------------0------------0------------0--------|-----0-----------0-----------0-----------0--------|--
A|--10-----------10-----------12-----------12-----------|--3-----------5-----------2-----------5-----------|--
E|------------------------------------------------------|--------------------------------------------------|--

Stave 5:

E|------------------------------------------------------|--------------------------------------------------|--
B|---------0------------0------------0------------0-----|--------0-----------0-----------0-----------0-----|--
G|------------0------------0------------0------------0--|-----------0-----------0-----------0-----------0--|--
D|------0------------0------------0------------0--------|-----0-----------0-----------0-----------0--------|--
A|--10-----------10-----------12-----------12-----------|--3-----------5-----------7-----------9-----------|--
E|------------------------------------------------------|--------------------------------------------------|--

Stave 6:

E|------------------------------------------------------|--------------------------------------------------|--
B|---------0------------0------------0------------0-----|--------0-----------0-----------0-----------------|--
G|------------0------------0------------0------------0--|-----------0-----------0-----------0-----------0--|--
D|------0------------0------------0------------0--------|-----2-----------2-----------2--------------4-----|--
A|--10-----------10-----------12-----------12-----------|--3-----------3-----------3-----------5--5--------|--
E|------------------------------------------------------|--------------------------------------------------|--

Stave 7:

E|--------------------------------------------------|--------------------------------------------------|--
B|--------0-----------0-----------0-----------0-----|--------0-----------0-----------0-----------0-----|--
G|-----------0-----------0-----------0-----------0--|-----------0-----------0-----------0-----------0--|--
D|-----0-----------0-----------0-----------0--------|-----0-----------0-----------0-----------0--------|--
A|--3-----------5-----------7-----------5-----------|--3-----------5-----------2-----------5-----------|--
E|--------------------------------------------------|--------------------------------------------------|--

Stave 8:

E|--------------------------------------------------|--------------------------------------------------|--
B|--------0-----------0-----------0-----------0-----|--------0-----------0-----------0-----------0-----|--
G|-----------0-----------0-----------0-----------0--|-----------0-----------0-----------0-----------0--|--
D|-----0-----------0-----------0-----------0--------|-----0-----------0-----------0-----------0--------|--
A|--3-----------5-----------7-----------9-----------|--3-----------5-----------2-----------5-----------|--
E|--------------------------------------------------|--------------------------------------------------|--

http://www.guitartabcreator.com
Guitar Tab Creator is intended to store guitar tab created through the tool. It currently does not support in-line text editing. Any text you place in here will be lost. If you need to comment on your tab, please use the "Tab Notes" section located below.