Sound will begin in 5 seconds

ILSYB

Chords
01234567891011121314151617181920212223
E
B
G
D
A
E
B
0 1 2 3 4 5 6 7 8 9 10 11 12 13 14 15 16 17 18 19 20 21 22 23
(/) Slide Up  (\) Slide Down  (h) Hammer On  (p) Pull Off  (b) Bend (r) Release (v) Vibrato

Capo Fret 3

Stave 1:

D|---------------------------------------------------------------0--------------------------
B|--3--3-----3p2--0----------------2-----3--3p2p0----------------------3--3p2p0-------------
G|--2----------------2--2/4--------2---------------2--4--------------------------2--2/4-----
D|--0------------------------------2---------------------4--4\2-----------------------------
A|--------0-------------2----------0-----0------------------------------------------2-------
E|----------------------------------------------------5--5----------0--0--------------------

Stave 2:

D|-----------------------------------------------------------------------------------------------------
B|--2--------3--3p2--0---------------------------------------------------------------------------------
G|--2-------------------2-----4-----------------2--------------------2---------------------------------
D|--2----------------------------0--------0--0-----------0-----0--0-----------0--2/4--4--------4\2-----
A|--0--------0----------------------------------0-----0--------------2-----2------------------------0--
E|-------------------------5-----5-------------------------------------------------------5-------------

Stave 3:

D|------------------------------------------------------------------------
B|------------------------------------------------------------------------
G|--------2--------------------2------------------------------------------
D|--0--0-----------0-----0--0-----------0--2/4--4--------5--4--------2p0--
A|--------0-----0--------------2-----2-------------------------0----------
E|-------------------------------------------------5----------------------

http://www.guitartabcreator.com
Guitar Tab Creator is intended to store guitar tab created through the tool. It currently does not support in-line text editing. Any text you place in here will be lost. If you need to comment on your tab, please use the "Tab Notes" section located below.