Sound will begin in 5 seconds

moody fingers

Chords
01234567891011121314151617181920212223
E
B
G
D
A
E
B
0 1 2 3 4 5 6 7 8 9 10 11 12 13 14 15 16 17 18 19 20 21 22 23
Song Science #1: How Pros Use 6 Chords to Write Hit Songs
(/) Slide Up  (\) Slide Down  (h) Hammer On  (p) Pull Off  (b) Bend (r) Release (v) Vibrato

Stave 1:

E|----------------------------------------------------------------------
B|----------------------------------------------------------------------
G|----------------------------------------------------------------------
D|--9--9--12--9--------------------------------------9h11p9-------------
A|---------------12-----12--9--12--9----------9--11----------11--9--7v--
E|------------------------------------9b---0----------------------------

Stave 2:

E|--------------------------------------------
B|--------------------------------------------
G|-----------------------------------------0--
D|-----------------------------------------2--
A|-----7--5-----------7--5--7--------------2--
E|--5--------7-----7-----------5--3--0--------

Stave 3:

E|----------------------------------------------------------------
B|-------------------------------------1--------------------------
G|-----------------0-------------------2-----------------------0--
D|-----------------2-------------------------------------------2--
A|-----------------2-----------------5\3-----------------------2--
E|--0--3--5--3--0--------0--3--5--3----------0--3--5--3--0--0-----

Stave 4:

E|-----------------------------------------
B|--------------------------------------2--
G|-----------------1--------------------2--
D|-----------------2--------------------2--
A|-----------------2-----0--1--3--1--0-----
E|--0--1--3--1--0--------------------------

http://www.guitartabcreator.com
Guitar Tab Creator is intended to store guitar tab created through the tool. It currently does not support in-line text editing. Any text you place in here will be lost. If you need to comment on your tab, please use the "Tab Notes" section located below.