viceroy chorus

Chords

01234567891011121314151617181920212223
E
B
G
D
A
E
B
0 1 2 3 4 5 6 7 8 9 10 11 12 13 14 15 16 17 18 19 20 21 22 23
(/) Slide Up  (\) Slide Down  (h) Hammer On  (p) Pull Off  (b) Bend (r) Release (v) Vibrato

Stave 1:

G|--------------------------------------------------
D|--------------------------------------------------
A|--------------------------4--4--4--4--------------
E|--5--5--5--5--4--4--4--4--------------2--2--2--2--

Stave 2:

G|--------------------------------------------
D|--------------------------------------------
A|--5--5--5--5--5--5--5--7--7--7--7--7--7--7--
E|--------------------------------------------

Stave 3:

G|--------------------------------------------------------
D|--------------------------------------------------------
A|--5--5--5--5--5--5--5--5--5--5--4--4--4--4--2--2--2--2--
E|--------------------------------------------------------

							http://www.guitartabcreator.com
Instruments
{"title":"viceroy chorus","strings":[[[".",".",".",".",".",".",".",".",".",".",".",".",".",".",".","."],[".",".",".",".",".",".",".",".",".",".",".",".",".",".",".","."],[".",".",".",".",".",".",".",".",4,4,4,4,".",".",".","."],[5,5,5,5,4,4,4,4,".",".",".",".",2,2,2,2]],[[".",".",".",".",".",".",".",".",".",".",".",".",".","."],[".",".",".",".",".",".",".",".",".",".",".",".",".","."],[5,5,5,5,5,5,5,7,7,7,7,7,7,7],[".",".",".",".",".",".",".",".",".",".",".",".",".","."]],[[".",".",".",".",".",".",".",".",".",".",".",".",".",".",".",".",".","."],[".",".",".",".",".",".",".",".",".",".",".",".",".",".",".",".",".","."],[5,5,5,5,5,5,5,5,5,5,4,4,4,4,2,2,2,2],[".",".",".",".",".",".",".",".",".",".",".",".",".",".",".",".",".","."]]],"numberofstrings":4,"notes":["G","D","A","E"],"capo":0,"stringnotes":["G2","D2","A1","E1"],"comments":["Stave 1:","Stave 2:","Stave 3:"],"timing":[["W","W","W","W","W","W","W","W","W","W","W","W","W","W","W","W"],["W","W","W","W","W","W","W","W","W","W","W","W","W","W"],["W","W","W","W","W","W","W","W","W","W","W","W","W","W","W","W","W","W"]],"timingvisible":false,"tabcounter":18,"stave":2,"totalstaves":3,"instrument":"4bass","selectedtuning":"4bass_standard","version":"13"}

Member for

2 years 3 months
Submitted by pinkkudu on Thu, 2018-11-15 14:23