Sound will begin in 5 seconds

Flesh and Bone Solo

01234567891011121314151617181920212223
E
B
G
D
A
E
B
0 1 2 3 4 5 6 7 8 9 10 11 12 13 14 15 16 17 18 19 20 21 22 23
Song Science #1: How Pros Use 6 Chords to Write Hit Songs
(/) Slide Up  (\) Slide Down  (h) Hammer On  (p) Pull Off  (b) Bend (r) Release (v) Vibrato

Stave 1:

E|---------10-------------------------------------------------------------------------------------
B|-------------13--10-----------------------------------------------------------------------------
G|--12b14--------------12b14r12--10--12--10------10------10------10--12b14r12p10------10--12--10--
D|-------------------------------------------12------12------12-------------------12--------------
A|------------------------------------------------------------------------------------------------
E|------------------------------------------------------------------------------------------------

Stave 2:

E|-----------------10--13b15r13p10------10------10--13/15--13--10------10------------------------------
B|---------10--13-------------------13------13---------------------13------13--10--13--10------10------
G|--12b14----------------------------------------------------------------------------------12------12--
D|-----------------------------------------------------------------------------------------------------
A|-----------------------------------------------------------------------------------------------------
E|-----------------------------------------------------------------------------------------------------

Stave 3:

E|------------------------------------------------------------------------------------------------------
B|------------------------------------------------------------------------------------------------------
G|--10--12--10------10----------------------------------------------------------------------------------
D|--------------12------12--10--12--10------10----------------------------------------------------------
A|--------------------------------------12------12--10------10--------------10------10--12------10--12--
E|------------------------------------------------------13------13--10--13------13----------13----------

Stave 4:

E|---------------------------------------------------------------------------------------------------|--
B|---------------------------------------------------------------------------------------------------|--
G|-------------------------------------------------------------10------10--12b14--14--14r12--12--12--|--
D|--10------10------10h12--12--12--12--12--10--10------10--12------12--------------------------------|--
A|------12------12---------------------------------12------------------------------------------------|--
E|---------------------------------------------------------------------------------------------------|--

Stave 5:

E|---------------------------------------------------------------------------------13p10------13p10--
B|----------10--------------------------------------10------------------------------------10---------
G|--10--12----------------------------------10--12---------------------------------------------------
D|--------------10--12------10--12----------------------10--12------10--12---------------------------
A|----------------------12----------12--10----------------------12----------10-----------------------
E|---------------------------------------------------------------------------------------------------

Stave 6:

E|------13p10------13p10------15p13------15p13------15p13------15p13------17p15------17p15------
B|--10---------10---------10---------13---------13---------13---------13---------15---------15--
G|----------------------------------------------------------------------------------------------
D|----------------------------------------------------------------------------------------------
A|----------------------------------------------------------------------------------------------
E|----------------------------------------------------------------------------------------------

Stave 7:

E|--17p15------17p15------20p17------20p17------20p17------20p17------22p20------22p20------
B|---------15---------15---------18---------18---------18---------18---------20---------20--
G|------------------------------------------------------------------------------------------
D|------------------------------------------------------------------------------------------
A|------------------------------------------------------------------------------------------
E|------------------------------------------------------------------------------------------

Stave 8:

E|--22p20------22p20------22--20--20------------------20--22--
B|---------20---------20--------------22--22--20--22----------
G|------------------------------------------------------------
D|------------------------------------------------------------
A|------------------------------------------------------------
E|------------------------------------------------------------

http://www.guitartabcreator.com
Guitar Tab Creator is intended to store guitar tab created through the tool. It currently does not support in-line text editing. Any text you place in here will be lost. If you need to comment on your tab, please use the "Tab Notes" section located below.