Sound will begin in 5 seconds

Starting again

01234567891011121314151617181920212223
E
B
G
D
A
E
B
0 1 2 3 4 5 6 7 8 9 10 11 12 13 14 15 16 17 18 19 20 21 22 23
Song Science #1: How Pros Use 6 Chords to Write Hit Songs
(/) Slide Up  (\) Slide Down  (h) Hammer On  (p) Pull Off  (b) Bend (r) Release (v) Vibrato

Stave 1:

E|--------------------------------------------------------------------------------------------------
B|--------------------------------------------------------------------------------------------------
G|--------------------------------------------------------------------------------------------------
D|-----------------9------------------------9-----------------------9-------------------------------
A|------10--9--10-----10--9------10--9--10-----10--9-----10--9--10-----10--9------9--10--12--10--9--
E|--12-----------------------10-----------------------9-----------------------12--------------------

Stave 2:

E|--------------------------------------------------------------------------------------------------
B|--------------------------------------------------------------------------------------------------
G|--------------------------------------------------------------------------------------------------
D|-----------------9------------------------9-----------------------9--------------------12---------
A|------10--9--10-----10--9------10--9--10-----10--9-----10--9--10-----10--9--12--9--10------10--9--
E|--12-----------------------10-----------------------9---------------------------------------------

Stave 3:

E|--------------------------------------------------------------------------------------
B|--------------------------------------------------------------------------------------
G|--------------------------------------------------------------------------------------
D|---------------7--------------------7--------------------7----------------------------
A|------8--7--8-----8--7-----8--7--8-----8--7-----8--7--8-----8--7------7--8--10--8--7--
E|--10--------------------8--------------------7--------------------10------------------

Stave 4:

E|--------------------------------------------------------------------------------------
B|--------------------------------------------------------------------------------------
G|--------------------------------------------------------------------------------------
D|---------------7--------------------7--------------------7------------------10--------
A|------8--7--8-----8--7-----8--7--8-----8--7-----8--7--8-----8--7--10--7--8------8--7--
E|--10--------------------8--------------------7----------------------------------------

Stave 5:

E|--------------------------------------------------------------------------
B|--------------------------------------------------------------------------
G|--------------------------------------------------------------------------
D|--------------------------------------------------------------------------
A|-----2--1--2--1--2--1--2-----2--1--2--1--2--1--2-----2--1--2--1--2--1--2--
E|--4-----------------------2-----------------------1-----------------------

Stave 6:

E|--
B|--
G|--
D|--
A|--
E|--

http://www.guitartabcreator.com
Guitar Tab Creator is intended to store guitar tab created through the tool. It currently does not support in-line text editing. Any text you place in here will be lost. If you need to comment on your tab, please use the "Tab Notes" section located below.