Sound will begin in 5 seconds

Chet Faker - Dead Body (end guitar)

01234567891011121314151617181920212223
E
B
G
D
A
E
B
0 1 2 3 4 5 6 7 8 9 10 11 12 13 14 15 16 17 18 19 20 21 22 23
Song Science #1: How Pros Use 6 Chords to Write Hit Songs
(/) Slide Up  (\) Slide Down  (h) Hammer On  (p) Pull Off  (b) Bend (r) Release (v) Vibrato

Stave 1:

E|-----------------------------------------------------
B|-----------------------------------------------------
G|-----------------------------------------------------
D|--15--17--15--14--15---------------------------------
A|----------------------15--12--12--14--15--14--10--7--
E|-----------------------------------------------------

Stave 2:

E|-----------------------------------------------------------------
B|-----------------------------------------------------------------
G|-----------------------------------------------------------------
D|--15--17--15--14--15---------------------------------------------
A|----------------------15--12--12--14--15--14--10--10--12--10--7--
E|-----------------------------------------------------------------

Stave 3:

E|------------------------------------------------------
B|------------------------------------------------------
G|------------------------------------------------------
D|--12--14--12--10--14--14--14--14--15--14--------------
A|------------------------------------------14--12--10--
E|------------------------------------------------------

Stave 4:

E|----------------------
B|--------------15--17--
G|------14--17----------
D|--17------------------
A|----------------------
E|----------------------

Stave 5:

E|--------------15------15------
B|--15--13--12------12----------
G|--------------------------12--
D|------------------------------
A|------------------------------
E|------------------------------

Stave 6:

E|--20----------------------
B|------16--15--13--15------
G|----------------------14--
D|--------------------------
A|--------------------------
E|--------------------------

http://www.guitartabcreator.com
Guitar Tab Creator is intended to store guitar tab created through the tool. It currently does not support in-line text editing. Any text you place in here will be lost. If you need to comment on your tab, please use the "Tab Notes" section located below.