Sound will begin in 5 seconds

Say Hi To The Mailman - Bass Tab

Chords
01234567891011121314151617181920212223
E
B
G
D
A
E
B
0 1 2 3 4 5 6 7 8 9 10 11 12 13 14 15 16 17 18 19 20 21 22 23
(/) Slide Up  (\) Slide Down  (h) Hammer On  (p) Pull Off  (b) Bend (r) Release (v) Vibrato

INTRO, VERSO 1 & PRE-CHORUS

G|--------------|--------------------4-----6----------------------------1-----|--------------------------
D|--6--------6--|--4--6--4--6-----4-----4-----4--6-----6--6--6\4--6-----------|--6--9--8--4--------------
A|--------------|----------------------------------------------------------2--|--------------------------
D|-----6--------|-------------------------------------------------------------|--------------6--9--8--4--

CHORUS, RELEASE A & BREAK A

G|--------------------|--------------|---------------------
D|--------------------|--------------|--6--8--0h6h8--------
A|--------------------|--------------|---------------------
D|--6--4--9--8--4--6--|--6--4--6--0--|---------------8--6--

MAILMAN, BRIDGE & PRE-RELEASE B

G|-----------------------------------------|------------------|-----------------
D|-----------------------------------------|------------------|-----------------
A|--------------------------------9--9h11--|--------7--4\6r0--|-----------------
D|--6--5--5/13--13\4-----6--5/13-----------|--6--4------------|--6--4--6--7--4--

RELEASE B & C

G|-----------------|--------6--8--
D|-----------------|--------4--6--
A|-----------------|--------------
D|--6--7--9--7--6--|--6--4--------

http://www.guitartabcreator.com
Guitar Tab Creator is intended to store guitar tab created through the tool. It currently does not support in-line text editing. Any text you place in here will be lost. If you need to comment on your tab, please use the "Tab Notes" section located below.