Sound will begin in 5 seconds

Pioneers - Bass Tab

Chords
01234567891011121314151617181920212223
E
B
G
D
A
E
B
0 1 2 3 4 5 6 7 8 9 10 11 12 13 14 15 16 17 18 19 20 21 22 23
(/) Slide Up  (\) Slide Down  (h) Hammer On  (p) Pull Off  (b) Bend (r) Release (v) Vibrato

Stave 1:

G|-----------|---------------------------------------------------|--------------------
D|-----------|---------------------------------------------------|----------------12--
A|-----------|---------------------------------------------------|------------10------
D|--5--3--0--|--5\0--12--10--12--12\0--5\0--12--10--12--9--8--5--|--0--12--0----------

Stave 2:

G|-----------|-----------------------------------------------------|--------------
D|-----------|-----------------------------------------------------|--------------
A|-----------|-----5--8--12--10--------------5--8--12--7-----------|--------------
D|--7--6--6--|--0----------------7--6--6--0---------------7--6--6--|--5--5--5--5--

Stave 3:

G|--------------------------------------|-----------------------------9--7--9-----------------7-----
D|--------------------------------------|--5/7\5-------9--5/7\5----------------5/7\5-------9-----8--
A|--------------------------------------|---------5/7--7---------5/7------------------5/7-----------
D|--5--1--2--5--1--2--5--2--1--5--2--1--|-----------------------------------------------------------

Stave 4:

G|--
D|--
A|--
D|--

http://www.guitartabcreator.com
Guitar Tab Creator is intended to store guitar tab created through the tool. It currently does not support in-line text editing. Any text you place in here will be lost. If you need to comment on your tab, please use the "Tab Notes" section located below.