slow Blues in E

Chords

01234567891011121314151617181920212223
E
B
G
D
A
E
B
0 1 2 3 4 5 6 7 8 9 10 11 12 13 14 15 16 17 18 19 20 21 22 23
(/) Slide Up  (\) Slide Down  (h) Hammer On  (p) Pull Off  (b) Bend (r) Release (v) Vibrato

Stave 1:

E|-------4--------3--------2-----0--------2--------0-------------0-----------0--0--
B|----------------------------------------0-----2-------------------3--------3--3--
G|--2/4-----4--3-----3--2-----2--0--------2-----------------0/1--------------1--1--
D|----------------------------------------1--------------2-------------------2--2--
A|----------------------------------0--1--2----------------------------------------
E|-------------------------------0--------------------0----------------0--0--------

Stave 2:

E|-------------5-----------------0-------------0-----------0--0-------------------------------
B|----------------8--------8----------------------3--------3--3-------------------------------
G|-----2--5/6-----------6-----------------0/1--------------1--1-------------------------------
D|-------------------------------------2-------------------2--2-------------------------------
A|--0----------------0--------0----------------------------------2--2--4--4--5----------2--4--
E|----------------------------------0----------------0--0--------0--0--0--0--0--0--3/4--------

Stave 3:

E|--------3--3-------------------3b4--0--------0---------------------------0-----------0--0--
B|--------2--2---------------------------0--3-----0--3/2--0-------------------3--------3--3--
G|--------2--2----------------2------------------------------2--------0h1--------------1--1--
D|--------2--2----------2--4--2------------------------------------2-------------------2--2--
A|--0--0--------0--3/4--------0--------------------------------------------------------------
E|--------------------------------------------------------------0----------------0--0--------

Stave 4:

E|---------------------------------------------2-----------3-----3-----3-----3--0--0----------
B|------------------------------------------0--0-----------2-----2-----2-----2-----------2/4--
G|---------------------------------------2-----2-----------2-----2-----2-----2----------------
D|------------------------------------1--------1----------------------------------------------
A|--2--2--4--4--5--5--4--0--1--2v--2-----------2--0--2----------------------------------------
E|--0--0--0--0--0--0--0---------------------------------0-----0-----0-----0-----------0-------

Stave 5:

E|--4--------3--------2-----0--------------------
B|-----4--3-----3--2-----2--------5-----------3--
G|--------------------------0--------------0-----
D|--------------------------------------2--------
A|-----------------------------------------------
E|--------------------------0--------0-----------

							http://www.guitartabcreator.com
Instruments
{"strings":[[[".",".",".",4,".",".",3,".",".",2,".",0,".",".",2,"_",".",0,".",".",".",".",".",0,".",".",".",0,0],[".",".",".",".",".",".",".",".",".",".",".",".",".",".",0,"_",2,".",".",".",".",".",".",".",3,".",".",3,3],[2,"/",4,".",4,3,".",3,2,".",2,0,".",".",2,"_",".",".",".",".",0,"/",1,".",".",".",".",1,1],[".",".",".",".",".",".",".",".",".",".",".",".",".",".",1,"_",".",".",".",2,".",".",".",".",".",".",".",2,2],[".",".",".",".",".",".",".",".",".",".",".",".",0,1,2,"_",".",".",".",".",".",".",".",".",".",".",".",".","."],[".",".",".",".",".",".",".",".",".",".",".",0,".",".",".","_",".",".",0,".",".",".",".",".",".",0,0,".","."]],[[".",".",".",".",".",5,".",".",".",".",".",0,".",".",".",".",".",0,".",".",".",0,0,".",".",".",".",".",".",".",".",".",".","."],[".",".",".",".",".",".",8,".",".",8,".",".",".",".",".",".",".",".",3,".",".",3,3,".",".",".",".",".",".",".",".",".",".","."],[".",2,5,"/",6,".",".",".",6,".",".",".",".",".",0,"/",1,".",".",".",".",1,1,".",".",".",".",".",".",".",".",".",".","."],[".",".",".",".",".",".",".",".",".",".",".",".",".",2,".",".",".",".",".",".",".",2,2,".",".",".",".",".",".",".",".",".",".","."],[0,".",".",".",".",".",".",0,".",".",0,".",".",".",".",".",".",".",".",".",".",".",".",2,2,4,4,5,".",".",".",".",2,4],[".",".",".",".",".",".",".",".",".",".",".",".",0,".",".",".",".",".",".",0,0,".",".",0,0,0,0,0,0,3,"/",4,".","."]],[[".",".",3,3,".",".",".",".",".",".",".",3,"b",4,0,".",".",0,".",".",".",".",".",".",".",".",".",".",".",0,".",".",".",0,0],[".",".",2,2,".",".",".",".",".",".",".",".",".",".",".",0,3,".",0,3,"/",2,0,".",".",".",".",".",".",".",3,".",".",3,3],[".",".",2,2,".",".",".",".",".",".",2,".",".",".",".",".",".",".",".",".",".",".",".",2,".",".",0,"h",1,".",".",".",".",1,1],[".",".",2,2,".",".",".",".",2,4,2,".",".",".",".",".",".",".",".",".",".",".",".",".",".",2,".",".",".",".",".",".",".",2,2],[0,0,".",".",0,3,"/",4,".",".",0,".",".",".",".",".",".",".",".",".",".",".",".",".",".",".",".",".",".",".",".",".",".",".","."],[".",".",".",".",".",".",".",".",".",".",".",".",".",".",".",".",".",".",".",".",".",".",".",".",0,".",".",".",".",".",".",0,0,".","."]],[[".",".",".",".",".",".",".",".",".",".",".",".",".",".",".",2,".",".",".",3,".",3,".",3,".",3,0,0,".",".",".","."],[".",".",".",".",".",".",".",".",".",".",".",".",".",".",0,0,".",".",".",2,".",2,".",2,".",2,".",".",".",2,"/",4],[".",".",".",".",".",".",".",".",".",".",".",".",".",2,".",2,".",".",".",2,".",2,".",2,".",2,".",".",".",".",".","."],[".",".",".",".",".",".",".",".",".",".",".",".",1,".",".",1,".",".",".",".",".",".",".",".",".",".",".",".",".",".",".","."],[2,2,4,4,5,5,4,0,1,2,"v",2,".",".",".",2,0,2,".",".",".",".",".",".",".",".",".",".",".",".",".","."],[0,0,0,0,0,0,0,".",".",".",".",".",".",".",".",".",".",".",0,".",0,".",0,".",0,".",".",".",0,".",".","."]],[[4,".",".",3,".",".",2,".",0,"_",".",".",".",".","."],[".",4,3,".",3,2,".",2,".","_",5,".",".",".",3],[".",".",".",".",".",".",".",".",0,"_",".",".",".",0,"."],[".",".",".",".",".",".",".",".",".","_",".",".",2,".","."],[".",".",".",".",".",".",".",".",".","_",".",".",".",".","."],[".",".",".",".",".",".",".",".",0,"_",".",0,".",".","."]]],"numberofstrings":6,"notes":["E","B","G","D","A","E","B"],"capo":0,"stringnotes":["E4","B3","G3","D3","A2","E2"],"comments":["Stave 1:","Stave 2:","Stave 3:","Stave 4:","Stave 5:"],"timing":[["W",null,"W","W","W","W","W","W","W","W","W","W","W","W","W","W","W","W","W","W","W",null,"W","W","W","W","W","W","W"],["W","W","W",null,"W","W","W","W","W","W","W","W","W","W","W",null,"W","W","W","W","W","W","W","W","W","W","W","W","W","W",null,"W","W","W"],["W","W","W","W","W","W",null,"W","W","W","W","W",null,"W","W","W","W","W","W","W",null,"W","W","W","W","W","W",null,"W","W","W","W","W","W","W"],["W","W","W","W","W","W","W","W","W","W",null,"W","W","W","W","W","W","W","W","W","W","W","W","W","W","W","W","W","W","W",null,"W"],["W","W","W","W","W","W","W","W","W",null,"W","W","W","W","W","W"]],"timingvisible":false,"tabcounter":15,"stave":4,"totalstaves":5,"instrument":"6guitar","selectedtuning":"6_standard","version":"13"}

Member for

2 weeks
Submitted by PierfiLIX on Tue, 2020-06-30 03:01