Let the Cocaine Be

Chords

01234567891011121314151617181920212223
E
B
G
D
A
E
B
0 1 2 3 4 5 6 7 8 9 10 11 12 13 14 15 16 17 18 19 20 21 22 23
(/) Slide Up  (\) Slide Down  (h) Hammer On  (p) Pull Off  (b) Bend (r) Release (v) Vibrato

Capo Fret 2

Intro

E|---------------------------------------------------------------------------------------------------------
B|-------3--3--5p3------------------------------------------------------3--------3-------------------------
G|--2/4-------------4--0--------2p0--2p0--------2p0--2p0-------------2--------2--------2-------------------
D|----------------------------------------2---------------2-----2/4--------4--------4-----4p2p0--4p2p0-----
A|---------------------------------------------------------------------------------------------------------
E|---------------------------------------------------------------------------------------------------------

Intro cont'd

E|--------------------------
B|--------------------------
G|--------------------------
D|-----0-----2--1--0--------
A|--2-----------------------
E|--------------------------

Up 

E|--0--3--3--3--3--0--------------------------------------------------------
B|--------------------3--0-----0-----0--------------------------------------
G|--------------------------3-----3-----2--0-------0---------------------0--
D|--------------------------------------------2p0-----2--0-------0--2p0-----
A|----------------------------------------------------------1/2-------------
E|--------------------------------------------------------------------------

							http://www.guitartabcreator.com
genre
Instruments
{"title":"Let the Cocaine Be","strings":[[[".",".",".",".",".",".",".",".",".",".","_","_",".",".",".",".",".",".",".","_",".",".",".",".",".",".",".","_",".",".",".",".",".",".",".",".",".",".",".",".",".",".",".",".",".",".",".",".","_"],[".",".",".",3,3,5,"p",3,".",".","_","_",".",".",".",".",".",".",".","_",".",".",".",".",".",".",".","_",".",".",".",".",3,".",".",3,".",".",".",".",".",".",".",".",".",".",".",".","_"],[2,"/",4,".",".",".",".",".",4,0,"_","_",2,"p",0,2,"p",0,".","_",2,"p",0,2,"p",0,".","_",".",".",".",2,".",".",2,".",".",2,".",".",".",".",".",".",".",".",".",".","_"],[".",".",".",".",".",".",".",".",".",".","_","_",".",".",".",".",".",".",2,"_",".",".",".",".",".",".",2,"_",2,"/",4,".",".",4,".",".",4,".",4,"p",2,"p",0,4,"p",2,"p",0,"_"],[".",".",".",".",".",".",".",".",".",".","_","_",".",".",".",".",".",".",".","_",".",".",".",".",".",".",".","_",".",".",".",".",".",".",".",".",".",".",".",".",".",".",".",".",".",".",".",".","_"],[".",".",".",".",".",".",".",".",".",".","_","_",".",".",".",".",".",".",".","_",".",".",".",".",".",".",".","_",".",".",".",".",".",".",".",".",".",".",".",".",".",".",".",".",".",".",".",".","_"]],[[".",".","_",".",".",".","_","_"],[".",".","_",".",".",".","_","_"],[".",".","_",".",".",".","_","_"],[".",0,"_",2,1,0,"_","_"],[2,".","_",".",".",".","_","_"],[".",".","_",".",".",".","_","_"]],[[null,0,3,3,3,3,0,".",".",".",".",".",".",".",".",".",".",".",".",".",".",".",".",".",".",".",".",".","."],[null,".",".",".",".",".",".",3,0,".",0,".",0,".",".",".",".",".",".",".",".",".",".",".",".",".",".",".","."],[null,".",".",".",".",".",".",".",".",3,".",3,".",2,0,".",".",".",0,".",".",".",".",".",".",".",".",".",0],[null,".",".",".",".",".",".",".",".",".",".",".",".",".",".",2,"p",0,".",2,0,".",".",".",0,2,"p",0,"."],[null,".",".",".",".",".",".",".",".",".",".",".",".",".",".",".",".",".",".",".",".",1,"/",2,".",".",".",".","."],[null,".",".",".",".",".",".",".",".",".",".",".",".",".",".",".",".",".",".",".",".",".",".",".",".",".",".",".","."]]],"numberofstrings":6,"notes":["E","B","G","D","A","E","B"],"capo":"2","stringnotes":["E4","B3","G3","D3","A2","E2"],"comments":["Intro","Intro cont'd","Up "],"timing":[["W",null,"W","W","W","W",null,"W","W","W",null,null,"W",null,"W","W",null,"W","W",null,"W",null,"W","W",null,"W","W",null,"W",null,"W","W","W","W","W","W","W","W","W","W","W",null,"W","W",null,"W",null,"W","W","W"],["W","W",null,"W","W","W"],["W","W","W","W","W","W","W","W","W","W","W","W","W","W","W","W",null,"W","W","W","W","W","W","W","W","W",null,"W","W"]],"timingvisible":false,"tabcounter":29,"stave":2,"totalstaves":3,"instrument":"6guitar","selectedtuning":"6_standard","version":"13"}

Member for

2 months 3 weeks
Submitted by PieCars on Wed, 2020-04-08 11:14