one red rose

01234567891011121314151617181920212223
E
B
G
D
A
E
B
0 1 2 3 4 5 6 7 8 9 10 11 12 13 14 15 16 17 18 19 20 21 22 23
(/) Slide Up  (\) Slide Down  (h) Hammer On  (p) Pull Off  (b) Bend (r) Release (v) Vibrato

Stave 1:

E|--------0-----------------|-----0--0--------------------0--|--1--0--------------------------------------0--5p3p0--3--0--|--1--------------1--3--
B|-----1--1--1--1--1--3-----|--1--------1--3--3--------3-----|--------3--1--1--0------------------------------------------|-----1--3-----3--------
G|--2--2-----2--2--2-----2--|--------------2--2--2--2--------|--------------------0--0--2--0-----2--0--0------------------|-----------4-----------
D|--2-----------------0-----|--------------0-----5--0--------|--2--0--------------------------3--2------------------------|-----------------------
A|--------------------------|--3-----0-----------------------|--------3-----2--------------------2-----2------------------|--------2--3-----2-----
E|--1--1-----1--1--1--------|-----------------1-----3--------|--------------------------3---------------------------------|--3--------------------

Stave 2:

E|--1-----0-----1-----0--------------|-----------------------|-----0--1--3p1-----1p0--1p0-------|--1--3p0--1p0-----0--------------5-----
B|-----1-----1--1--1-----1--3--0--0--|--0--------------------|--1-------------3------------1p0--|---------------1-----0--3--5--6--------
G|-----------------------------------|--------2-----2--------|----------------------------------|---------------------2-----------------
D|-----------------------------------|-----2--2--3-----3--0--|----------------------------------|---------------------------------------
A|--3-----------0--0-----------------|--------2--------------|----------------------------------|----------3-------0--0-----------------
E|-----------------------------------|--1--0-----------------|----------------------------------|--1------------------------------------

Stave 3:

E|--------|--8--8--5-----5--3--5--------------0-----|-----------0-----0-----------0--1--1--0-----|--0--1--0-----|--
B|--1-----|--5--5--5--8-----------8--6--1--3-----1--|--3--1--3-----3-----3-----3-----------------|-----------3--|--
G|-----0--|--5--5--5--5--5--5--7--7--5--0-----------|--------------------------------------------|--------------|--
D|-----3--|--------------3--3--5--5--3--------------|--------------------------------------------|--------------|--
A|--0--3--|-----------------------------3-----------|--2--------------3-----3--3--3--3--3--3--3--|--3--3--3--3--|--
E|--------|-----------------------------------------|--------------------------------------------|--------------|--

							http://www.guitartabcreator.com
Chords

Instruments
{"strings":[[[".",".",0,".",".",".",".",".","|",".",0,0,".",".",".",".",".",".",0,"|",1,0,".",".",".",".",".",".",".",".",".",".",".",".",0,5,"p",3,"p",0,3,0,"|",1,".",".",".",".",1,3],[".",1,1,1,1,1,3,".","|",1,".",".",1,3,3,".",".",3,".","|",".",".",3,1,1,0,".",".",".",".",".",".",".",".",".",".",".",".",".",".",".",".","|",".",1,3,".",3,".","."],[2,2,".",2,2,2,".",2,"|",".",".",".",".",2,2,2,2,".",".","|",".",".",".",".",".",".",0,0,2,0,".",2,0,0,".",".",".",".",".",".",".",".","|",".",".",".",4,".",".","."],[2,".",".",".",".",".",0,".","|",".",".",".",".",0,".",5,0,".",".","|",2,0,".",".",".",".",".",".",".",".",3,2,".",".",".",".",".",".",".",".",".",".","|",".",".",".",".",".",".","."],[".",".",".",".",".",".",".",".","|",3,".",0,".",".",".",".",".",".",".","|",".",".",3,".",2,".",".",".",".",".",".",2,".",2,".",".",".",".",".",".",".",".","|",".",".",2,3,".",2,"."],[1,1,".",1,1,1,".",".","|",".",".",".",".",".",1,".",3,".",".","|",".",".",".",".",".",".",".",".",3,".",".",".",".",".",".",".",".",".",".",".",".",".","|",3,".",".",".",".",".","."]],[[1,".",0,".",1,".",0,".",".",".",".","|",".",".",".",".",".",".",".","|",".",0,1,3,"p",1,".",1,"p",0,1,"p",0,".",".",".","|",1,3,"p",0,1,"p",0,".",0,".",".",".",".",5,"."],[".",1,".",1,1,1,".",1,3,0,0,"|",0,".",".",".",".",".",".","|",1,".",".",".",".",".",3,".",".",".",".",".",".",1,"p",0,"|",".",".",".",".",".",".",".",1,".",0,3,5,6,".","."],[".",".",".",".",".",".",".",".",".",".",".","|",".",".",2,".",2,".",".","|",".",".",".",".",".",".",".",".",".",".",".",".",".",".",".",".","|",".",".",".",".",".",".",".",".",".",2,".",".",".",".","."],[".",".",".",".",".",".",".",".",".",".",".","|",".",2,2,3,".",3,0,"|",".",".",".",".",".",".",".",".",".",".",".",".",".",".",".",".","|",".",".",".",".",".",".",".",".",".",".",".",".",".",".","."],[3,".",".",".",0,0,".",".",".",".",".","|",".",".",2,".",".",".",".","|",".",".",".",".",".",".",".",".",".",".",".",".",".",".",".",".","|",".",".",".",".",3,".",".",".",0,0,".",".",".",".","."],[".",".",".",".",".",".",".",".",".",".",".","|",1,0,".",".",".",".",".","|",".",".",".",".",".",".",".",".",".",".",".",".",".",".",".",".","|",1,".",".",".",".",".",".",".",".",".",".",".",".",".","."]],[[".",".","|",8,8,5,".",5,3,5,".",".",".",".",0,".","|",".",".",".",0,".",0,".",".",".",0,1,1,0,".","|",0,1,0,".","|"],[1,".","|",5,5,5,8,".",".",".",8,6,1,3,".",1,"|",3,1,3,".",3,".",3,".",3,".",".",".",".",".","|",".",".",".",3,"|"],[".",0,"|",5,5,5,5,5,5,7,7,5,0,".",".",".","|",".",".",".",".",".",".",".",".",".",".",".",".",".",".","|",".",".",".",".","|"],[".",3,"|",".",".",".",".",3,3,5,5,3,".",".",".",".","|",".",".",".",".",".",".",".",".",".",".",".",".",".",".","|",".",".",".",".","|"],[0,3,"|",".",".",".",".",".",".",".",".",".",3,".",".",".","|",2,".",".",".",".",3,".",3,3,3,3,3,3,3,"|",3,3,3,3,"|"],[".",".","|",".",".",".",".",".",".",".",".",".",".",".",".",".","|",".",".",".",".",".",".",".",".",".",".",".",".",".",".","|",".",".",".",".","|"]]],"numberofstrings":6,"notes":["E","B","G","D","A","E","B"],"capo":0,"stringnotes":["E4","B3","G3","D3","A2","E2"],"comments":["Stave 1:","Stave 2:","Stave 3:"],"timing":[[null,null,null,null,"H","H","H","H",null,"W","W","W","W","W","W","W","W","W","W",null,"W","W","W","W","W","W","W","W","W","W","W","W","W","W","W","W",null,"W",null,"W","W","W",null,"W","W","W","W","W","W","W"],["W","W","W","W","W","W","W","W","W","W","W",null,"W","W","W","W","W","W","W",null,"W","W","W","W",null,"W","W","W",null,"W","W",null,"W","W",null,"W",null,"W","W",null,"W","W",null,"W","W","W","W","W","W","W","W"],["W","W",null,"W","W","W","W","W","W","W","W","W","W","W","W","W",null,"W","W","W","W","W","W","W","W","W","W","W","W","W","W",null,"W","W","W","W"]],"timingvisible":false,"tabcounter":37,"stave":2,"totalstaves":3,"instrument":"6guitar","selectedtuning":"6_standard","version":"13"}

Member for

1 month 3 weeks
Submitted by picklewalrus1 on Fri, 2021-02-26 21:12