#35

01234567891011121314151617181920212223
E
B
G
D
A
E
B
0 1 2 3 4 5 6 7 8 9 10 11 12 13 14 15 16 17 18 19 20 21 22 23
(/) Slide Up  (\) Slide Down  (h) Hammer On  (p) Pull Off  (b) Bend (r) Release (v) Vibrato

Capo Fret 1

Stave 1:

E|----------------------------
C|----------------------------
G|--0-----------12p9p0--------
C|-----0-----9----------------
A|--0-----0-------------8/10--
F|----------------------------

Stave 2:

E|-------------------------
C|-------------------------
G|--0-----------12p9p0-----
C|-----0-----9-------------
A|--0-----0-------------7--
F|-------------------------

Stave 3:

E|-------------------------------------------------------------
C|-------------------------------------------------------------
G|--0-----------12p9/12--14p12-----0-----------12p9/12---------
C|-----0-----9------------------------0-----9-----------14-----
A|--0-----0------------------------0-----0---------------------
F|-------------------------------------------------------------

							http://www.guitartabcreator.com
Chords

Tab Notes
tapped
Instruments
{"strings":[[[".",".",".",".",".",".",".",".",".",".",".","."],[".",".",".",".",".",".",".",".",".",".",".","."],[0,".",".",".",12,"p",9,"p",0,".",".","."],[".",0,".",9,".",".",".",".",".",".",".","."],[0,".",0,".",".",".",".",".",".",8,"/",10],[".",".",".",".",".",".",".",".",".",".",".","."]],[[".",".",".",".",".",".",".",".",".","."],[".",".",".",".",".",".",".",".",".","."],[0,".",".",".",12,"p",9,"p",0,"."],[".",0,".",9,".",".",".",".",".","."],[0,".",0,".",".",".",".",".",".",7],[".",".",".",".",".",".",".",".",".","."]],[[null,".",".",".",".",".",".",".",".",".",".",".",".","_",".",".",".",".",".",".",".",".",".",".","_"],[null,".",".",".",".",".",".",".",".",".",".",".",".","_",".",".",".",".",".",".",".",".",".",".","_"],[null,0,".",".",".",12,"p",9,"/",12,14,"p",12,"_",0,".",".",".",12,"p",9,"/",12,".","_"],[null,".",0,".",9,".",".",".",".",".",".",".",".","_",".",0,".",9,".",".",".",".",".",14,"_"],[null,0,".",0,".",".",".",".",".",".",".",".",".","_",0,".",0,".",".",".",".",".",".",".","_"],[null,".",".",".",".",".",".",".",".",".",".",".",".","_",".",".",".",".",".",".",".",".",".",".","_"]]],"numberofstrings":6,"notes":["E","C","G","C","A","F","B"],"capo":"1","stringnotes":["E4","C2","G3","C2","A2","F2"],"comments":["Stave 1:","Stave 2:","Stave 3:"],"timing":[["W","W","W","W","W",null,"W",null,"W","W",null,"W","W"],["W","W","W","W","W",null,"W",null,"W","W"],["W","W","W","W","W",null,"W",null,"W","W",null,"W",null,"W","W","W","W","W",null,"W",null,"W","W"]],"timingvisible":false,"tabcounter":25,"stave":2,"totalstaves":3,"instrument":"6guitar","selectedtuning":"6_standard","version":"13"}

Member for

6 months 2 weeks
Submitted by Picard34 on Fri, 2021-03-05 01:40